Oops, an error
Loading. Please wait.

Juniors Eyes Bass Tab

version 3
version 3

Whole song

Interactive

978 views 3 this week
no commentswrite comment
1 2 3 4 5
2 more votes to show rating
add to favorites
launch autoscroll
font size
0
reset
guitar tuner
Autoscroll
slow
fast
+/-
esc
set tempo
stop
Help us to improve Ultimate-Guitar.com Take our survey!
×
Author
Difficulty
novice
A vague approximation of the bass i could take out with my ear from the song
the song is full of random fills that hard to isolate so u can just improvise or whatever
enjoy.

intro
G|---------------------------------7-9-7h9p7----------|
D|---------5---------------77-5--9-----------9--------|
A|-7---7-5-----55-77---5-7----------------------------|
E|---6---------------6--------------------------------|

main riff                           Random fill
G|-------------------------------- {9-7--------}
D|---------5---------------77-5----{---9-7-----}
A|-7---7-5-----55-77---5-7---------{-----------}
E|---6---------------6-------------{-----------}

Chorus
G|-----------------------------------|
D|-----------------------------------|
A|--77-5-77-7-5-33-------------------|
E|-----------------------------------|
Suggest correction
Give kudos to tab author, rate the tab!
1 2 3 4 5
comments
print report bad tab
guest
You may want to rate the tab now too:
select rating
Wanna post a correction for this tab? Suggest correction