Oops, an error
Loading. Please wait.

Lady Evil Tab

version 1
version 1

Whole song

Interactive

8,982 views 21 this week
no commentswrite comment
1 2 3 4 5
please rate
add to favorites
launch autoscroll
font size
0
reset
how to read this tab
guitar tuner
Tab Pro tools
  • play this tab
  • loop segment
  • change instrument
  • show fretboard
  • metronome
×
Best way to learn
"Lady Evil"
Autoscroll
slow
fast
+/-
esc
set tempo
stop
Contributor
Heaven and Hell album
Intro
d#|-----------------------------|-----------------------------|
A#|-----------------------------|-----------------------------|
F#|-----3---3-3---3----5--------|-----3---3-3---3--3----------|
C#|-----3---3-3---3----5--------|-----3---3-3---3--3-5--------|
G#|-----------------------------|--------------------5--------|
D#|-3-3---3-----3----3----0-1-2-|-3-3---3-----3---------0-1-2-|
End Intro 1st time
d#|-------------|
A#|-------------|
F#|-----3---5---|
C#|-5---3---5---|
G#|-5---1---3---|
D#|-3-----------|

Verse
d#|---------------------------------|
A#|---------------------------------|
F#|-----3---3-----------3---6-5-3---|
C#|-----3---3-----------3---6-5-3---|
G#|---------------5-----------------|
D#|-3-3---3---3-3-3---3---3-------3-|

Chorus
d#|------------------------|--------------------|--------------------------|
A#|------------------------|--------------------|---------pm----------|----|
F#|-3----------3-----------|-5-5-5-5--3---------|-3------------------------|
C#|-3----5-----3---5-3-----|-5-5-5-5--3--3--5---|-3----3--3-3-3-3-3-3-3-3--|
G#|-1----5---------5-3-----|-3-3-3-3--1--3--5---|-1----3--3-3-3-3-3-3-3-3--|
D#|------3---3---3-----3-3-|-------------1--3---|------1--1-1-1-1-1-1-1-1--|

Pickslide into Intro Riff again
Intro End 2
d#|-----------|
A#|-----------|
F#|-5----3----|
C#|-5----3----|
G#|-3----1----|
D#|-----------|

Verse Chorus again, then solo is verse rhythm,
then verse rhythm up a step:
d#|----------------------------------|-------------------------------------|
A#|----------------------------------|-half-time-bit-----------------------|
F#|-----5-----5----------5---8-7-5---|-7-------7-------9-------9-----------|
C#|-----5-----5----------5---8-7-5---|-7---7---7---7---9---9---9---9-------|
G#|-----------------7----------------|-5---7---5---7---7---9---7---9-------|
D#|-5-5---5-5---5-5-5--5---5-------5-|-----5-------5-------7-------7-------|

continued
d#|---------------------------------|
A#|-pm----------------------------|-|
F#|---------------------------------|
C#|-7-7-7-7-7-7-7-7-7-7-7-7-7-7-7-7-|
G#|-5-5-5-5-5-5-5-5-5-5-5-5-5-5-5-5-|
D#|---------------------------------|

riff into verse
d#|------------------------------------------------------|
A#|------------------------------------------------------|
F#|-------------3----------------------------3-5----3----|
C#|-----5---3-----5------3-----------5---3-----5----3----|
G#|------------------3-5---5-------------------3----1----|
D#|-3-3---3---3--------------6-5-3-3---3---3-------------|

Outro
d#|---------------|
A#|---------------|
F#|---------------|
C#|---------------|
G#|-----3-4-3-----|
D#|-3-6-------6-3-|
comments
We did not receive enough feedback on this tab! Please rate:
print report bad tab
1 2 3 4 5
I want to post or [tab]
guest
You may want to rate the tab now too:
select rating
Please do not post tabs as comments. Select "correction" instead!