Oops, an error
Loading. Please wait.

Lonely Is The Word bass

version 1
version 1

Whole song

Interactive

766 views 1 this week
no commentswrite comment
1 2 3 4 5
2 more votes to show rating
add to favorites
×
Save as Personal and add changes to this tab that will be seen only by you. Learn more ›
×
You can save this tab as Personal to edit and correct it or add notes. All changes will be seen only by you. Learn more »
launch autoscroll
font size
0
reset
guitar tuner
backing track
0:00
0:00
edit
Autoscroll
slow
fast
+/-
esc
set tempo
stop
 Song: Lonely Is The Word
 Band: Black Sabbath
 Album: Heaven And Hell
 Bassist: Geezer Butler
 Composer: Iommi, Butler, Ward
 Tabbed by: FLBatista
 Tunning: Half-Step Down (Eb Ab Db Gb)

VERSE 1:

Gb|-----------------5\--|X9
Db|---------------------|
Ab|---------------------|
Eb|-5-5\---5-5\---------|


                              Oh, Lonely Is The Word...

Gb|-----------------------------------------------7-9------|
Db|---------------------5-7--------------------/9-----9-7~-|
Ab|------------------/7-----7-5--5-5---5---7--7------------|
Eb|-5-5\---5-5--5-5-5----------------7---7-----------------|


VERSE 2:

Gb|-5\--||-----------------------5/--|X7
Db|-----||---------------------------|
Ab|-----||--------3------------------|
Eb|-----||-5-5\-----3-4-5-5\---------|


                                 Year, Lonely Is The Word ...

Gb|--------------------------------------------------7-9---|
Db|---------------------/7-5----------------------/9-----9-|
Ab|--------3-----------------7-6-5--5-5---5---7--7---------|
Eb|-5-5\-----3-4-5-5-5-5----------------7---7--------------|

Gb|------------------------------------------------7-9------|
Db|-7----7---7-6-5----5---5h7-------------------/9-----9-7~-|
Ab|----7---7--------7---7-----5--5-5---5----7--7------------|
Eb|----------------------------------7---7------------------|


SOLO 1:

Gb|------------------------------------------55----|
Db|--------7-------------7/9------10---10------7-9-|
Ab|-3----7----7---7----7-----8-------8----8--------|
Eb|---5---------5---5------------------------------|

Gb|-------------------------------------------------10-----12-|
Db|-7---------7-------7/9-----10----10---10----10/12--12/14---|
Ab|----7----7---7---7------8-----8-----8----8-----------------|
Eb|------5--------5-------------------------------------------|

Gb|-----------------------------------------------|
Db|-7---------7-------7/9-----10----10---10-------|
Ab|----7----7---7---7------8-----8-----8----8--3--|
Eb|------5--------5-------------------------------|

Gb|--------------------------------------------------10-|
Db|------7-------------7/9----10----10---10----10/12----|
Ab|----7----7---7----7-----8-----8-----8----8-----------|
Eb|-5---------5---5-------------------------------------|

Gb|-------------------------------------------------10-------------|
Db|-----------7--777--------7-------------7/9----10-----10---10----|
Ab|-7-5-3------------3----7----7---7----7-----8------------8----8--|
Eb|-------5------------5---------5---5-----------------------------|

Gb|-5-------------------------------------------------------10-----12-|
Db|---9-7-9-7---------7-------7/9-----10----10---10----10/12--12/14---|
Ab|------------7----7---7---7------8-----8-----8----8-----------------|
Eb|--------------5--------5-------------------------------------------|

Gb|----------------------------------------------------|
Db|-7---------7-------7/9-----10----10---10------------|
Ab|----7----7---7---7------8-----8-----8----8-8--7-5-3-|
Eb|------5--------5------------------------------------|

Gb|-----------------------------10----------------------------------------|
Db|-----7-------------7/9----10-----10---10-------------------------------|
Ab|---7----7---7----7-----8------------8----8---7-5-3----7-5-3----7-5-3-7-|
Eb|5---------5---5------------------------------------5--------5----------|

Gb|--------10--------------9---------------------------------|
Db|-----10----10---10----9---9---9-7----7---7-6-5----5---5h7-|
Ab|--8-----------8----7--------7------7---7--------7---7-----|
Eb|----------------------------------------------------------|

Gb|---------------------7-9-------------/14--14(12x)\-|
Db|------------------/9-----9-7--7-7--7---------------|
Ab|-5--5-5---5---7--7---------------------------------|
Eb|--------7---7--------------------------------------|


    Year, lonely is the name...

Gb|---------------------7-9----------------|
Db|------------------/9-----9-7----7---7-6-|
Ab|-5--5-5---5---7--7------------7---7-----|
Eb|--------7---7---------------------------|

Gb|-----------------------------------7-9------|
Db|-5----5---5h7-------------------/9-----9-7~-|
Ab|----7---7-----5--5-5---5---7--7-------------|
Eb|---------------------7---7------------------|


SOLO 2:

Gb|---------------------------------10-------------55----|
Db|--------7-------------7/9----8h10----10---10------7-9-|
Ab|-3----7----7---7----7-----8-------------8----8--------|
Eb|---5---------5---5------------------------------------|

Gb|---------------------------5----5----5---------10-----12-|
Db|-7---------7-------7/9--------------------10/12--12/14---|
Ab|----7----7---7---7------8----8----8----8-----------------|
Eb|------5--------5-----------------------------------------|

Gb|----------------554-5---------------------------------------|
Db|-7--------------------7-7--------------------------7/9-9/10-|
Ab|----7----7-8--8------------7----7-8--7--5-3h5----7----------|
Eb|------5----------------------5----------------5-------------|

Gb|---/7--5-4h5--------------5--4-5-7--------------|
Db|-------------7-----7---------------7-------7----|
Ab|-8---------------7---7-8--------------7-----78--|
Eb|----------------------------------------5-------|

Gb|-----------------------5--4-5-4-----------------5--4-5-7-|
Db|---------------7--7-------------7----7---7---------------|
Ab|-7--5-3h5----7-----78--------------7---7---7-8-----------|
Eb|----------5----------------------------------------------|

Gb|-----------------5----5-------------------5--4-5-4-|
Db|-7----7---5-4-3-----5---5-7--------7---------------|
Ab|----7---7--------------------7---7---7-8-----------|
Eb|-------------------------------5-------------------|

Gb|--------------------------------------------10---------|
Db|-7----7---7-------------------7---7------10----10---10-|
Ab|----7---7---7-8--7--5-3-----7---7---7-8-----------8----|
GB|-------------------------5-----------------------------|

Gb|-----------------5----5/7-----------------5----5/7-|
Db|-7----7---7---------5-----7----7---7---------5-----|
Ab|----7---7---7-8--------------7---7---7-8-----------|
Eb|---------------------------------------------------|

Gb|-----------------5--4-5-7-------------------------|
Db|-7----7---7---------------7----7---7--------------|
Ab|----7---7---7-8--------------7---7---7-8--7--5-3--|
Gb|--------------------------------------------------|

Gb|------------------------------------------------5-4-5-4-|
Db|------7----------------------------7--------------------|
Ab|----7---7---7-8-888-8-888-875----7---7---7-8--8---------|
Gb|-5--------5-------------------5--------5----------------|

Gb|-----------------5--4-5-7-----------------10--9-7-9----------------|
Db|-7----7---7---------------7----7---7----------------7----7---7-----|
Ab|----7---7---7-8--------------7---7---7-8---------------7---7---7-8-|
Gb|-------------------------------------------------------------------| FADE OUT...


CAP:
  / : Slide Up
  \ : Slide Down
  h : Hammer On
  p : Pull Off

            
            
Suggest correction
Creating personal tab
Creating personal tab
You can edit any tab online and save it as your Personal.

You can edit, replace or remove any tab part or add personal notes – all changes will be seen only by you.

Personal tabs can be accessed anytime from any device, even offline.
Learn more »
Give kudos to tab author, rate the tab!
1 2 3 4 5
comments
print report bad tab
guest
You may want to rate the tab now too:
select rating
Wanna post a correction for this tab? Suggest correction