Oops, an error
Loading. Please wait.

Lords Of This World Bass Tab

version 1
version 1

Whole song

Interactive

9,469 views 15 this week
2 commentsread comments
1 2 3 4 5
x 3
add to favorites
launch autoscroll
font size
0
reset
guitar tuner
Autoscroll
slow
fast
+/-
esc
set tempo
stop
Help us to improve Ultimate-Guitar.com Take our survey!
×
Author
Bassist: Geezer Butler
Band: Black Sabbath
Album: Master of Reality
Song: Lord of this World
\ = Slide Down
/\ = Slide Up then down
b = Bend

Intro
G |----------------------------------|
D |----------------------------------|
A |---5--5-5-3--2--3-5---------------|  x4
E |----------------------5--4--5-5---|

Verse
G |---------------------------------------------|
D |---------------------3-----------------------|
A |---5-5-3-5--5-5-3-5----5-3--5-5-3-5----3-4---| x6
E |--------------------------------------5------|

Pre-Verse
G |--------------5-3-------|
D |------------3-----5-3---|
A |---5--3--5--------------|
E |------------------------|

Verse x 6
Pre Verse

Pre-Solo
G|------------------------------------------------------------------------------------------|
D|------------------7-5-------------------7-5-----------------7-5----------------7-5--------|
A|---3-5--5-3-2---------7-5b--5-3-2--7/\------7-5b--5-3-2--------7-5b--5-3-2--------7-5b----|
E|---------------7\-----------------------------------------7\-----------------7\-----------|

Solo
G|-------9-9-9-9-9-------------------------------9------9-----9-------------------------|
D|-----9-----------9---------------------------9------9-----9---9-------5-------7-5-----|
A|---7---------------------------------------7------7-----7--------------------------7--|
E|--------------------5-5-5-5-5--7-7-7-7-5------------------------3-3-3---5-5-5---------|

G|-------9-----9--7----------------------------------9-9-9-9-9-9-9-9----------------------------|
D|-----9-----9------9-7----------------------------9------------------7-------------------------|
A|---7-----7------------9------------------------7----------------------------------------------|
E|-------------------------5-5-5-5-5--7-7-7-7-5-------------------------5-5-5-5-5--7-7-7-7-5----|

G|-------9-9-9-9-9-9-9--------------------------|
D|-----9----------------7-------5-------7-5-----|
A|---7---------------------------------------7--|
E|------------------------3-3-3---5-5-5---------|

Intro x2

Chorus
G|---------------------------|
D|---------------------------|
A|---5-5-5-5-5\--3-3-3-3-3---| x2
E|---------------------------|

Intro x2
Verse x 6
Pre-Verse
Pre-Solo

Solo #2
G|-------9-9-9-9-9------------------------------9-----9-----9---------------------------|
D|-----9-----------9--------5-------7-5-------9-----9-----9---9-------------------------|
A|---7-----------------------------------7--7-----7-----7-------------------------------|
E|--------------------3-3-3---5-5-5------------------------------5-5-5-5-5--7-7-7-7-5---|

G|-------9-9-9-9-9-9-9------------------------------9-------9--------9----------|
D|-----9----------------7-------5-------7-5-------9---9---9---9----9---9--------|
A|---7---------------------------------------7--7-------7--------7--------7--3--|
E|------------------------3-3-3---5-5-5-----------------------------------------|

G|-------5--------5-------5----------9-----9--7-9---------------------------------9---|
D|-----5---5----5---5---5---5------9-----9--------7-9---------------------------9-----|
A|---3--------3-------3-------3--7-----7--------------9-----------------------7-------|
E|-------------------------------------------------------5-5-5-5-5--7-7-7-7-5---------|

G |-------9-------9-----------------------------|
D |-----9---9---9---9---------------------------|
A |---7-------7-------7-------------------------|
E |----------------------5-5-5-5-5--7-7-7-7-5---|

Outro
G |-------9-----9--7--------------------------------|
D |-----9-----9------9-7----------5--------7--------|
A |---7-----7------------9--------------------5-4---| x3
E |-------------------------3-3-3----5-5-5----------|

G |--------|
D |--------|
A |---7b---|
E |--------|


I think this should be correct.  Any pointers or something give me a comment.
Suggest correction
Give kudos to tab author, rate the tab!
1 2 3 4 5
comments
print report bad tab
2 comments total.
+2 reply
fLYinGV23 102 Nov 17, 2008 03:56 PM

Good tab, but this song is in C#, and it's "Lord Of This World" not "Lords". Sorry, I'm picky with my Sabbath :P

0 reply
montanarobinson3 10 Aug 10, 2015 10:00 PM

Lack of accuracy. Clearly wrong. It's close but not quite right. You can hear when listening to the actual song that it's just a bit off on just about every riff. Made learning the song difficult, but still helped me get a general idea of what i needed to know.

guest
You may want to rate the tab now too:
select rating
Wanna post a correction for this tab? Suggest correction