Oops, an error
Loading. Please wait.

Master Of Insanity Bass Tab

version 1
version 1

Whole song

Interactive

2,136 views 1 this week
1 commentread comment
1 2 3 4 5
x 4
add to favorites
launch autoscroll
font size
0
reset
guitar tuner
Autoscroll
slow
fast
+/-
esc
set tempo
stop
Help us to improve Ultimate-Guitar.com Take our survey!
×
Black Sabbath
Master of Insanity
Dehumanizer




g|-------------------------------------------
d|-----------------------3-----5----7-5-3
a|-7------4---------2------4----6----------
e|---6-0---3--0--1------3---5-----------
 This is the Intro I think this is how it goes.

Any questions E-mail me at  ahigg333@aol.com
 

Suggest correction
comments
print report bad tab
1 comment total.
0 reply
Dark Wolf 93 52 Aug 15, 2011 08:33 PM

The intro is actually the following...
G|-----------------------------|
D|---------------3--6--9-8-6---|
A|-7-----4------2--5--8------8-|
E|---6-0---3-0-1--4--7---------|

guest
You may want to rate the tab now too:
select rating
Wanna post a correction for this tab? Suggest correction