Oops, an error
Loading. Please wait.

Master Of Insanity Tab

version 1
version 1

Solo

Whole song

Interactive

328 views 1 this week
no commentswrite comment
1 2 3 4 5
please rate
add to favorites
launch autoscroll
font size
0
reset
how to read this tab
guitar tuner
Autoscroll
slow
fast
+/-
esc
set tempo
stop
Help us to improve Ultimate-Guitar.com Take our survey!
×
Contributor
Difficulty
Tuning
Mobby32 520
intermediate
D# G# C# F# A# D#
 Black Sabbath Master of insanity on the dehumanizer album

        
e|----10--12b~--12-10----------------------------|
B|-10-----------------13--10-----10--------------|
G|----------------------------13------13p12p10---|
D|-----------------------------------------------|
A|-----------------------------------------------|
E|-----------------------------------------------|

e|----------------------------------------------------------------------|
B|-------10-------------------------------------------------------------|
G|-12p10----10----12p10----------10-------------------------------------|
D|-------------12-------12p10h12----12p10----10-------------------------|
A|----------------------------------------12----12p10s8h10-8-10s12------|
E|----------------------------------------------------------------------|
          
e|-------15b*---15b*r-13--15b*--15-13-------------------|
B|---------------------------------- -15-15b^-----------|
G|----10------------------------------------ ----17-17--|
D|-10----------------------------------- -----19--------|
A|------------------------------------------------------|
E|------------------------------------------------------|

e|----------------------------------------------18b*---18br*-----|
B|-20b*-----------------20b*-------20b*-20br*-18--------------15-|
G|------------------17---------17--------------------------------|
D|---------------19---------19-----------------------------------|
A|---------------------------------------------------------------|
E|---------------------------------------------------------------|

e|----------------------------------------------------------------|
B|-18-17-15----15-------------------------------------------------|
G|----------17----17-14----14-17-14----14-------------------------|
D|----------------------17----------17----17-15s17-19-17-15-------|
A|----------------------------------------------------------17 15-|
E|----------------------------------------------------------------|

e|------------------------------------------------------------------------|
B|------------------------------------------------------------------------|
G|------------------------------------------------------------------------|
D|-15-17-19-17-15-------17-15----------------------------------------10-12|
A|----------------17-15-------17-15-------17-15----------------10-12------|
E|----------------------------------17-15-------17-15-13-10-13------------|

e|----------------------------------------------|
B|---------10-13-10-----------------------------|
G|-10-12b*-----------12-10----------------------|
D|------------------------12-10-----------------|
A|------------------------------12--------------|
E|----------------------------------------------|



Legend
B=bend
S=slide
br=bend release
h=hammer on
p=pull off
*=full
^=1 1/2
~=1/2
comments
We did not receive enough feedback on this tab! Please rate:
print report bad tab
1 2 3 4 5
I want to post or [tab]
guest
You may want to rate the tab now too:
select rating
Please do not post tabs as comments. Select "correction" instead!