Oops, an error
Loading. Please wait.

Megalomania Bass Tab

version 1
version 1

Whole song

Interactive

1,997 views 3 this week
no commentswrite comment
1 2 3 4 5
3 more votes to show rating
add to favorites
launch autoscroll
font size
0
reset
guitar tuner
Autoscroll
slow
fast
+/-
esc
set tempo
stop
Help us to improve Ultimate-Guitar.com Take our survey!
×
Author
Difficulty
novice
Megalomania - Black Sabbath - Sabotage

Tabbed by: Marcus Lycus
e-mail: maclark88@juno.com

  Riff 1 (1x at intro)                /-sometimes-\
G--------------------------------------------------------------------|
D--4-4----4^5^4-----4-4----4^5^4------4-4---4444------4-4---4^5^4----|
A---4--5--------34---4--5--------34----4--5------34----4--5-------34-|
E--------------------------------------------------------------------|

  Riff 2
  Where can I run to now...
G---------------------------------|
D-4-4-5--5555-----4-4-5--5555-----|
A--4----------34---4----------34--|
E---------------------------------|

  Riff 3
G-------------------------------------------|
D--------9-9---9-11p9------------9--9-9-----|
A--9---9-------------12-9--9---9-------7-9--|
E----7-----------------------7--------------|

  Riff 4                                              last time-v
G--------------------------------------------------------------|---|
D--------11--11-11-13-11-----------------11--11-11-13-11----11-|\4-|
A-11--11------------------13-----11--11------------------13----|---|
E----9------------------------------9--------------------------|---|

  Riff 5
G---------------------------------------|
D--7-7-7-7-7--0--0-0--2-3-4-5----5--9-7-|
A------------------------------7--------|
E---------------------------------------|

  Riff 6
G----------|
D----------|
A----------|
E--2-2-----|

  Riff 7 (variations on this)
G--------------------------------------|
D------------------------------2---2-4-|
A--------------------------2h4---4-----|
E--2-2-2-2-2-2-2-2-2-2-2-2-------------|

  Riff 8
G-------------------------------------------------------------|
D----------2-3-4-----------2-3-4-----------2-3-4--------------|
A---0-2--2----------0-2--2----------0-2--2----------0-2-------|
E-2---------------2---------------2--------------2-------2----|

  Riff 9
G---------4---------------6-----|
D-----2h4--4----------4h6---6---|
A-4-4--------4----6-6---------6-|
E-------------------------------|

G----------------------|
D----------------------|
A----------------------|
E----------------------|

G----------------------|
D----------------------|
A----------------------|
E----------------------|

Structure

Intro 1

Verse
1, 1, 2, 2, 3, 3, 4, 4

Verse
1, 1, 2, 2, 3, 3, 4, 4

Bridge 1
5, 5, - 6, 6

7777 7777

Verse
7777 7777
7777 7777
88

6, 6, 6,
7777 7777

Verse
7777 7777
7777 7777
88

Bridge 2

6, 6, 6
7777
Suggest correction
Give kudos to tab author, rate the tab!
1 2 3 4 5
comments
print report bad tab
guest
You may want to rate the tab now too:
select rating
Wanna post a correction for this tab? Suggest correction