Oops, an error
Loading. Please wait.

Neon Knights Bass Tab

version 2
version 2

Whole song

Interactive

3,500 views 3 this week
no commentswrite comment
1 2 3 4 5
please rate
add to favorites
launch autoscroll
font size
0
reset
guitar tuner
Autoscroll
slow
fast
+/-
esc
set tempo
stop
Help us to improve Ultimate-Guitar.com Take our survey!
×
Author
Difficulty
novice
Title: Neon Knights
Artist: Black Sabbath
Album: Heaven And Hell
Composer: Geezer Butler/Bill Ward/ Dio
Tabbed By: FLBatista

INTRO:

G|--------|
D|--------|
A|-6(16X)-|
E|--------|


MAIN RIFF (6X):

G|------------|
D|----------3-|
A|-6(14X)-4---|
E|------------|


BRIDGE 1:

G|----------------|
D|------------4-3-|
A|-4--3--1--3-----|
E|----------------|

PLAY:

- MAIN RIFF (4X)
- BRIDGE 1
- MAIN RIFF


BRIDGE 2:

G|---------------------------|
D|-----------------------4-3-|
A|-4(16X)-7(7X)-2--2(5X)-----|
E|---------------------------|


PLAY:
- MAIN RIFF (5X)
- BRIDGE 1
- MAIN RIFF (3X)
- BRIDGE 1
- INTRO


VERSE:

G|--------------------------------------------------------------------------|
D|---------------1--------------------------------------1-------------------|
A|-------2(6X)-4---4(7X)-2--1-----2-1-----------2(6X)-4---4(7X)-----------2-|
E|-4(8X)----------------------4-2-----4-2-4(8X)-----------------2--2--2-4---|


G|------------------------------------------------------------------------|
D|---------------1------------------------------------------6-6-4-6-4-----|
A|-------2(6X)-4---4(7X)-2--1-----2-1---------------------------------6-5-|
E|-4(8X)----------------------4-2-----4-2-4(8X)-2(8X)-4(9X)---------------|


VERSE 2:

G|-----------------1----------------1----------------------------|
D|-------------1-4--------------1-4------------------------------|
A|-4(8X)-2--1-------4(8X)-2--1--------------2--1-----------------|
E|------------------------------------4(8X)-------4--1-2-3-4(8X)-|


G|-------------------------------1-------6-4-------------|
D|---------------------------1-4-------------6-4-6-4-----|
A|-2--1------2---4(8X)-2--1--------4(8X)-------------5-2-|
E|------4--4---4-----------------------------------------|


G|-------------------------------------------------------------------------|
D|-------------4-2-----------------6-4-------------------------------------|
A|-----------------4-2-----------------6-4---------------------------------|
E|-0--0--0--0----------2--2--2--2----------4~---4--4--4--4~----4--4--4--4~-|


DURING THE GUITAR SOLO:

G|--------------------------------------------------------------------------|
D|----------8-88-888--------------------------------------------------------|
A|-6-66-666-----------1-11-111-2-22-244-6-66-666----------4-44-444-2-22-244-|
E|-----------------------------------------------4-44-444-------------------|


G|--------------------------------------------------------------------------|X3
D|----------8-88-888-----------------------------6-66-666-------------------|
A|-6-66-666-----------1-11-111-2-22-244-6-66-666----------4-44-444-2-22-244-|
E|--------------------------------------------------------------------------|


G|--------3---1------------------|
D|----------------4---3---1------|
A|-1(16X)---------------------4--|
E|-------------------------------|


PLAY:

MAIN RIFF (3X)
BRIDGE 1
MAIN RIFF (4X)
BRIDGE 1
MAIN RIFF
BRIDGE 2
MAIN RIFF (Until the end)


FINAL LIVE

G|---------------------------|
D|---------------------------|
A|-4--3--1--3--4--3--1--3--7-|
E|---------------------------|
Suggest correction
What's this?
You can suggest a correction to this tab. Community and Mods will review your correction and vote to approve or reject it.
comments
We did not receive enough feedback on this tab! Please rate:
print report bad tab
1 2 3 4 5
guest
You may want to rate the tab now too:
select rating
Please do not post tabs as comments. Select "correction" instead!