Oops, an error
Loading. Please wait.

Nib Bass Tab

version 4
version 4
101,926 views 276 this week
5 commentsread comments
1 2 3 4 5
accurate
x 7
add to favorites
launch autoscroll
font size
0
reset
guitar tuner
Autoscroll
slow
fast
+/-
esc
set tempo
stop
Help us to improve Ultimate-Guitar.com Take our survey!
×
Contributor
Difficulty
intermediate
Band:Black Sabbath
Album: We Sold Our Souls For Rock'n'Roll
Bassist: Geezer Butler
TUNING: STANDARD (EADG)

Q=176
4/4

   E E E E Q      E E   E E Q      E E Q    E E Q  E E Q    E E Q  E E  Q
G|--------------------|-------------------|---------------|---7-9--9-7-10-|
D|---------5b5.5----5-|-7---7b7.5--7-5----|-----5----5-7--|-9-------------|
A|-7-7-5----------7---|----------------7--|-5------7------|---------------|
E|-------7------------|-------------------|---7-----------|---------------|

                               |-3-|
   E E E E Q  Q        E E E E E E E Q
G|-9-7---------------|------------------|
D|-----9-7h9--5b5.5--|---5-7---7-5---5--|
A|-------------------|-7-----------7----|
E|-------------------|------------------|

   E E Q  Q      Q    E E Q  E E Q    E E Q      E E Q
G|------------------|---------------|---------------------|
D|------------------|----------5----|-5-7-7b7.5--7-5------|
A|-7-5--------------|-----5--7---7--|----------------7----|
E|-----7--3b3.5--0--|-5-7-----------|---------------------|

   E E E E Q  E E   E E Q  E E Q     Q   E E Q  Q        E E Q  Q      E E
G|-----7-9-9--7---|---------------|--------------------|-------------------|
D|-5S9----------9-|-7h9-5---------|--------5-7--7b7.5--|-7-5----5b5.5------|
A|----------------|--------7-5----|--5---7-------------|-----7---------7-5-|
E|----------------|------------7--|-(0)----------------|-------------------|

   E E Q      Q  E E   E E Q      H      E E Q  E. S Q    Q      Q  Q  Q
G|-------------------|-----------------|----------------|-----------------|
D|-------------------|-----5b5.5-------|-----------5-7--|-7b7.5--7--5-----|
A|-------------------|-5-7--------7----|-5---5--7-------|-----------------|
E|-7-5-3b3.5--0--5-7-|-----------------|---7------------|-----------------|

   E E E E Q  Q    E     E Q  Q  E E   E E E E Q  E E   E E Q  Q  E E
G|---------------|-------------------|----------------|-------------7-|
D|-----5---5--7--|-7b7.5-7-5---------|---------5--7---|-7-7-5-----9---|
A|-5h7---7-------|------------7--5---|-----5h7--------|--------7------|
E|---------------|-----------------7-|-5h7------------|---------------|

   E E E E E E Q    E E Q  Q      E E   Q  Q  Q  Q    E E Q  E      Q
G|-9-9-7----------|-------------------|-------------|------------------|
D|-------9-7-9-5--|--------5b5.5------|-------------|--------5b5.5-----|
A|----------------|-7-5-----------7-5-|-------7--5--|---5-7---------7--|
E|----------------|-----7-------------|-7--0--------|-7----------------|

   E E E E E E E E   E E Q  H      E E Q  Q  Q    Q      Q  H
G|-----------------|-------------|--------------|----------------|
D|-----------------|-5h7p5-------|-----------5--|-7b7.5--7--5----|
A|-5---5h7-5h7-5h7-|--------7----|-5---5--7-----|----------------|
E|---7-------------|-------------|---7----------|----------------|

                             |Q=92
                    |2/4     |4/4
   a Q a Q a Q a Q     E E Q   H..       E   E E E E E E E E
G|------------------|--------|-------------|-----------------|
D|------------------|--------|-------------|-----------5-4---|
A|-5h7-5h7-5h7-5h7--|--5---5-|-7p========5-|-7-7-5-7---------|
E|------------------|----7---|-------------|-----------------|

   E E E E E E     E E   E E E E E E E E
G|---------------------|-----------------|
D|-----------8b8.5-7-5-|-----------5-4---|
A|-7-7-5-7-------------|-7-7-5-7---------|
E|---------------------|-----------------|

   E E E E E S S S S E     E E E E E E E E
G|---------------------||--------------------|
D|-------------------5-||o-----------5-4-----|
A|-7-7-5-7-------5h7---||o-7-7-5-7-----------|
E|-----------5h7-------||--------------------|

   E E E E E E E E   E E E E E E E E   E E E E E E a a S S E   E E E E E E E E
G|-----------------|-----------------|-----------------------|------------------|
D|-----------8-7-5-|-----------5-4---|---------------------5-|-----------5-4----|
A|-7-7-5-7---------|-7-7-5-7---------|-7-7-5-7---------------|-7-7-5-7----------|
E|-----------------|-----------------|-----------7-5h7-5-7---|------------------|

   E E E E E E E E   E E E E E E E E   E E E E E S  S S S    E E E E E E E E
G|-----------------|-----------------|---------------------|-----------------|
D|-----------8-7-5-|-----------5-4---|-----------5-/6-7-5/-|-----------5-4---|
A|-7-7-5-7---------|-7-7-5-7---------|-7-7-5-7-------------|-7-7-5-7---------|
E|-----------------|-----------------|---------------------|-----------------|

   E E E E E E  E E   E E E E E E E E
G|------------------|-----------------|
D|-----------8/-7-5-|-----------5-4---|
A|-7-7-5-7----------|-7-7-5-7---------|
E|------------------|-----------------|

                         1.
   E E E E E S S S S E   a Q  E E +E  a E S S E
G|---------------------|--------9-(9)-7h9-9-7----|
D|---------------------|------9---------------9--|
A|-7-7-5-7-------5---5-|-5h7---------------------|
E|-----------5-7---7---|-------------------------|

   E E E a E E E S S E   E E E a E E E S S E   E  E  E  E  E  E E E
G|-----------7-7-7-5---|-----------5-5-5-3---|-----------------------||
D|-------5h7---------7-|-------3h5---------5-|----------------------o||
A|-5-5-5---------------|-3-3-3---------------|-2--2--2--2--2--2-2-2-o||
E|---------------------|---------------------|-----------------------||

     2.
     Q  E E +E  E S S E   Q  E E +E  E S S E
G||-------9-(9)-9-9-7---|------9-(9)-9-9-7---|
D||o----9-------------9-|----9-------------9-|
A||o-7------------------|-7------------------|
E||---------------------|--------------------|

   Q  E E +E  E S S E   Q  Q  Q  E E
G|------9-(9)-9-9-7---|---------------||
D|----9-------------9-|--------------o||
A|-7------------------|-2--2--2--2-2-o||
E|--------------------|---------------||

   Q  Q  Q  E E   Q  E E +E  E E E   Q  Q  Q  E E   W     +W
G|--------------|------4-(4)-4-2---|--------------|-----|--------|
D|--------------|----4-----------4-|--------------|-----|--------|
A|-3--3--3--3-3-|-2----------------|-3--3--3--3-3-|-2---|-(2)----|
E|--------------|------------------|--------------|-----|--------|

    $
    E E E E E E E E   E E E E E E     E E
G||-----------------|---------------------|
D||-----------5-4---|-----------8b8.5-7-5-|
A||-7-7-5-7---------|-7-7-5-7-------------|
E||-----------------|---------------------|

   E E E E E E E E   E E E E E S S S S E
G|-----------------|----------------------||
D|-----------5-4---|-------------------5--||
A|-7-7-5-7---------|-7-7-5-7-------5h7----||
E|-----------------|-----------5h7--------||

   E E E E E E E E   E E E E E S  S S S    E E E E E E E E   E E E E E E E E
G|-----------------|---------------------|-----------------|-----------------|
D|-----------5-4---|-----------5-/6-7-5/-|-----------5-4---|-----------8-7-5-|
A|-7-7-5-7---------|-7-7-5-7-------------|-7-7-5-7---------|-7-7-5-7---------|
E|-----------------|---------------------|-----------------|-----------------|

   E E E E E E E E   E E E E E E E E
G|-----------------|-----------------|
D|-----------5-4---|-----------------|
A|-7-7-5-7---------|-7-7-5-7-------5-|
E|-----------------|-----------5-7---|

   E E E E E E E E   E E E E E E  a E a a E
G|-----------------|-------------------------|
D|-----------5-4---|-----------8/---7-----5--|
A|-7-7-5-7---------|-7-7-5-7------7---5------|
E|-----------------|--------------------7----|


[To Coda]

   Q  E E S E S S S E   Q  E E S E. S S E   Q  E E S E. S S E   E E E E E E E E
G|--------9-9-9-9-7---|--------7-7--7-5---|--------5-5--5-3---|-----------------|
D|------9-----------9-|------7----------7-|------5----------5-|-----------------|
A|-7--7---------------|-5--5--------------|-3--3--------------|-2-2-2-2-2-2-2-2-|
E|--------------------|-------------------|-------------------|-----------------|

   E E E E E E E E   E E Q  E E E E   Q  Q  E E E E   Q  Q  E E E E
G|-----------------|----------------|---------------|---------------|
D|-----------------|----------------|---------------|---------------|
A|-7-7-7-7-7-7-7-7-|-5-5-5--5-5-5-5-|-3--3--3-3-3-3-|---------------|
E|-----------------|----------------|---------------|-2--2--2-2-2-2-|

   E E E E E E E E   E E E E S. T S. T S. T S
G|-----------------|---------7--7-7--7-7--7---|
D|-----------------|-------7----------------7-|
A|-7-7-7-7-7-7-7-7-|-5-5-5--------------------|
E|-----------------|--------------------------|

   E E E E S E S S. T S. T   E E E E E E E E
G|---------5-4-------------|-----------------|
D|-------------5-4--5-4--5-|-----------------|
A|-3-3-3-5-----------------|-2-2-2-2-2-2-2-2-|
E|-------------------------|-----------------|

   E E E E H      E E E E H      E E E E H      E E E E E S S E E
G|--------------|--------------|--------------|---------4-4-4-4-4-|
D|--------------|--------------|--------------|-------4-----------|
A|-7-7-7--------|-5-5-5--------|-3-3-3--------|-2-2-2-------------|
E|--------------|--------------|--------------|-------------------|

   E E E S S +S  E S S S E   E S S E E +E  E S S S S
G|---------9-(9)-9-9-9-7---|---------7-(7)-5---------|
D|-------9---------------9-|-----------------5h7-5h7-|
A|-7-7-7-------------------|-5-5-5-5-----------------|
E|-------------------------|-------------------------|

   E E E S S +S  S S S S S S S   E E E E E E E E
G|---------4-(4)---5p4---5p4---|---------5-5-5-5--|
D|-------5-------5-----5-----5-|-------4----------|
A|-3-3-3-----------------------|-2-2-2------------|
E|-----------------------------|------------------|

   E E E E E E E E   E E E E E E E E   E E E E E E E E   E E E E E S S S S E
G|-----------------|-----------------|-----------------|-----------------------|
D|-----------5-4---|-----------8-7-5-|-----------5-4---|-------------------5---|
A|-7-7-5-7---------|-7-7-5-7---------|-7-7-5-7---------|-7-7-5-7-------5h7-----|
E|-----------------|-----------------|-----------------|-----------5h7---------|

   E E E E E E E E   E E E E E S S S S E   E E E E E E E E    E E E E E E E E
G|-----------------|---------------------|------------------|------------------|
D|-----------5-4---|-----------5-6-7-5---|-----------5-4----|-----------8-7-5--|
A|-7-7-5-7---------|-7-7-5-7-----------7-|-7-7-5-7----------|-7-7-5-7----------|
E|-----------------|---------------------|------------------|------------------|

   E E E E E E E E   E E E E S S S S S S E
G|-----------------|-----------------------|
D|-----------5-4---|---------------------5-|
A|-7-7-5-7---------|-7-7-5-----------------|
E|-----------------|-------3-3-3-5-5-7-7---|

   E E E E E E E E   E E E E E E S S E
G|-----------------|-------------------||
D|-----------5-4---|-------------------||
A|-7-7-5-7---------|-7-7-5-7-----5---5-||
E|-----------------|-----------7---7---||

   Q  E E S E S S S E   Q  E E S E. S S E
G|--------9-9-9-9-7---|--------7-7--7-5---|
D|------9-----------9-|------7----------7-|
A|-7--7---------------|-5--5--------------|
E|--------------------|-------------------|

   Q  E E S E. S S E   E E E S S E E E E
G|--------5-5--5-3---|-------4-4----------|
D|------5----------5-|--------------------|
A|-3--3--------------|-2-2-2-----2-2-2-2--|
E|-------------------|--------------------|

   E S S Q  E E E E   E S S Q  S S E S S E
G|------------------|----------------------|
D|------------------|----------------------|
A|-7-7-7-7--7-7-7-7-|-5-5-5-5--5-5-5-5-5-5-|
E|------------------|----------------------|

   E E Q  S E S S S E   E. S Q  S E. S S E
G|--------------------|----------------------|
D|--------------------|----------------------|
A|-3-3-3--3-3-3-3-3-3-|-2--2-2--2-2--2-2-2---|
E|--------------------|----------------------|

   S S S S E S S +S  S E S S E
G|-------------9-(9)-9-9-9-7---|
D|-----------9---------------9-|
A|-7-7-7-7-7-------------------|
E|-----------------------------|

   S S S S E. S +S  S S S a E a E   E E E S S E S S E S S
G|------------7-(7)-5-------------|-----------5-----5------|
D|--------------------7-5-5h7-5h7-|-------4h5---4h5---4h5--|
A|-5-5-5-5-5----------------------|-3-3-3------------------|
E|--------------------------------|------------------------|

   E E E S S +S  S S S S S E   E S S E S S S S a S S E S S
G|---------4-(4)-4-4-4-4-4-4-|-----------7-7---7h9-7---7---|
D|-------4-------------------|---------9-----9-------9---9-|
A|-2-2-2---------------------|-7-7-7-7---------------------|
E|---------------------------|-----------------------------|

   E S S E S S +S  S S S a E E
G|-----------7-(7)-7-7-7-5h7---|
D|---------7-----------------7-|
A|-5-5-5-5---------------------|
E|-----------------------------|

   E E E E +S  S S S a E a E   E S S E S S +S  S S S E E
G|-------5-(5)-3-------------|-----------4-(4)-4-4-4-4-4-|
D|---------------5-3-3-5-3-5-|---------4-----------------|
A|-3-3-3---------------------|-2-2-2-2-------------------|
E|---------------------------|---------------------------|

   E S S E S S +S  S S S S S E
G|-----------9-(9)-9-9-9-9-7---|
D|---------9-----------------9-|
A|-7-7-7-7---------------------|
E|-----------------------------|

   E S S E S S +S  S S S S S S S   E S S E S S S S S S S S S S
G|-----------5-(5)---7-5---7-5---|-------------3h5-----3h5-----|
D|---------7-------7-----7-----7-|---------3h5-----3h5-----3h5-|
A|-5-5-5-5-----------------------|-3-3-3-3---------------------|
E|-------------------------------|-----------------------------|

   E S S E S S S S S S S S S S
G|--------------------------------|
D|--------------------------------|
A|-2-2-2-2-2-2-2-2-2-2-2-2-2-2----|
E|--------------------------------|

   TP         TP
   W          W          Q   Q  H
G|----------|----------|-------------*|----|
D|----------|----------|-------------*|----|
A|-2--------|-7--------|-7\----------*|----|
E|----------|----------|-------------*|----|



************************************

| (n)  Ghost note
| h    Hammer-on
| p    Pull-off
| b    Bend
| /    Slide up
| \    Slide down
| S    Shift slide
| =    Hold bend 

Duration Legend ---------------

W - whole
H - half
Q - quarter
E - 8th
S - 16th
T - 32nd
X - 64th
+ - note tied to previous
. - note dotted
..  note double dotted

************************************
comments
print report bad tab
5 comments total. Showing first comments.
+1 reply
frantic_saint 377 wrote on March 11 2009, 07:02 pm

nice tab. intro sounds pretty good.

+1 reply
Puppet_616 836 wrote on January 8 2010, 10:34 am

Really comprehensive tab, thanks a lot :)

0 reply
Vic 3 31 wrote on January 15 2014, 04:32 pm

Groovtastical

I want to post or [tab]
guest
You may want to rate the tab now too:
select rating
Please do not post tabs as comments. Select "correction" instead!