Oops, an error
Loading. Please wait.

No Stranger To Love Tab

version 1
version 1

Whole song

Interactive

4,622 views 9 this week
1 commentread comment
1 2 3 4 5
please rate
add to favorites
launch autoscroll
font size
0
reset
how to read this tab
guitar tuner
Autoscroll
slow
fast
+/-
esc
set tempo
stop
Help us to improve Ultimate-Guitar.com Take our survey!
×
Author
|-----------------------------------------15-12-14-------------------|
|-----12-15^-15^---------17^-^17-17^---------------15-12h15p12----12-|
|-14^----------------------------------------------------------14----|
|--------------------------------------------------------------------|
|--------------------------------------------------------------------|
|--------------------------------------------------------------------|

|--------------------------------|
|--------------------------------|
|-12-11--------------------------|
|-------12----14/16-1412---------|
|----------14-------------14-----|
|--------------------------------|
"Cold is the night..."                 "ya said that you'd..." 
|--------------------------------------------------------|----------|(1st time)
|--------------------------------------------------------|----------|
|-9-------------------9----------------------------------|-9-12-----|
|-9---------9---------9----------9--------7-------7-9-10-|-9-12-12--|
|-7---------9---------7----------9--------7-------7-9-10-|-7-10-12--|
|-0---------7---------0----------7--------5-------5-7--8-|------10--|
          "Living on the street..."
|(2nd time)3---------------------------3------------------------|
|----------0---------------------------0------------------------|
|----7-----0-------7------9-----7------0------7-------9-----7---|
|-7--7-----0-------7------9--9--7------0------7-------9--9--7---|
|-7--5-----2-------5------7--9--5------2------5-------7--9--5---|
|-5--------3-----------------7---------3-----------------7------|
"Im a stranger in your arms..."
|---------------------------------------------------|
|---------------------7h8-8-8-7---------------------|
|-----0---------------7h9-9-9-7------0--------------|
|---2---2-4-----7------------------2---2-4-----7----|
|-3-------2-----5----------------3-------2-----5----|
|---------------------------------------------------|
                        P.M.  ..   ..    ..
|--------------------------------------------------|
|--------------------------------------------------|
|--------------------------------------------------|
|--------------------4/5-----9---7-----------------|
|-7--5h7--7p5----5h7------9----------9p7-----------|
|-0-----0----0-0----------7----7---7-----7-10------|

Solo:
|-------------15-12-14-12----------------------------------|
|-15^-15-15^--------------15-12----------------------------|
|-------------------------------12-12h14p12p11-------------|
|----------------------------------------------------------|
|----------------------------------------------------------|
|----------------------------------------------------------|

|--------------------------------------------12------------|
|------------------------h---------------------15-12-------|
|-11h12-14--12-11h12p11-11-12-14-11h12p11-/14--------14----|
|----------------------------------------------------------|
|----------------------------------------------------------|
|----------------------------------------------------------|

|-------------------------------17------------------------------|
|---------------------------17^----17-17^-1715-12---------------|
|-11h12p11-----------------------------------------14p12p11-----|
|----------12----------------------------------------------12---|
|-------------14~~~~~-------------------------------------------|
|---------------------------------------------------------------|

|----------------14-------------------14-----------------------|
|-------------------15-12-15p12----12----15-12----12-----------|
|-14p12p11-12-14----------------14-------------15---15-14-12---|
|-----------------------------------------------------------14-|
|--------------------------------------------------------------|
|--------------------------------------------------------------|

|---------------------------|
|---------------------------|
|-14-12----12---------------|let ring
|-------14---14-12----------|
|------------------14~~-----|
|---------------------------|
Suggest correction
Give kudos to tab author, rate the tab!
1 2 3 4 5
comments
print report bad tab
1 comment total.
0 reply
opan 136 wrote on October 23 2007, 04:53 am

You are the first who tabbed this song thanks man...

guest
You may want to rate the tab now too:
select rating
Wanna post a correction for this tab? Suggest correction