Oops, an error
Loading. Please wait.

Orchid Bass Tab

version 1
version 1

Whole song

Interactive

1,342 views 1 this week
2 commentsread comments
1 2 3 4 5
x 4
add to favorites
launch autoscroll
font size
0
reset
guitar tuner
Autoscroll
slow
fast
+/-
esc
set tempo
stop
Help us to improve Ultimate-Guitar.com Take our survey!
×
Author
------------------------Orchid - Black Sabbath/Toni Iommi-------
----------------------------------------------------------------

Tabbed By : Adam 
e-mail: Iampinkfloyd@hotmail.com

I love playing this song on guitar, its a fairly simple one that sounds beautiful,
so I decided to tab it for bass. I also have a version for six string bass, email me
if you want it. ( I chose not to post it because not too many people play six string)
Dedicated to Randy Burns

Tuning: Standard 4 string GDAE

Intro
G||--9------11----13------18--------|--16----18----|
D||---------------------------------|--------------|
A||---------------------------------|--------------|
E||--9------11----12------17--------|--16----17----|


                                                  
--13------13------13------13------|--13----13----|
----------------------------------|--------------|
----------------------------------|--------------|
--12------12------12------12------|--12----12----|


                                                                               Verse
|------8--------8--------8--------8-----|-----8--------8--------8--------8---
|*--------9--------9--------9--------9--|--------9--------9--------9--------9
|*--------------------------------------|------------------------------------
|---7--------7--------7--------7--------|--7--------7--------7--------7------


                                                                              
-----9--------9--------9--------9-----|-----9--------9--------9--------9-----
--------6--------6--------6--------6--|--------6--------6--------6--------6--
--------------------------------------|--------------------------------------
--9--------9--------9--------9--------|--9--------9--------9--------9-------|

                                                                            
-----9--------9--------9--------9-----|-----9--------9--------9--------9-----
--------8--------8--------8--------8--|--------8--------8--------8--------8--
--------------------------------------|--------------------------------------
--9--------9--------9--------9--------|--9--------9--------9--------9--------


                                                                                
-*---8--------8--------8--------8-----|-----8--------8--------8--------8-----
--------9--------9--------9--------9--|--------9--------9--------9--------9--
--------------------------------------|--------------------------------------
-*-7--------7--------7--------7--------|--7--------7--------7--------7-------


       Chorus                                            
-------13----------13----------13----------13------|
*--------------------------------------------------|
*----------11----------11----------11----------11--|
---12----------12----------12----------12----------|


                                                   
------13----------16----------15----------13------|
--------------------------------------------------|
----------11----------------------------------11--|
--12----------16------16--14------16--12----------|


                                                                                
-----8--------8--------8--------8-----|-----8--------8--------8--------8----*
--------9--------9--------9--------9--|--------9--------9--------9--------9--
--------------------------------------|--------------------------------------
--7--------7--------7--------7--------|--7--------7--------7--------7-------*


   Bridge                                                
------11----------11----------11----------11------|
----------10----------10----------10----------10--|
--------------------------------------------------|
--11----------11----------11----------11----------|


                                             
------11----------11---------9--------8-----|
----------10----------10--------8--------7--|
--------------------------------------------|
--11----------11----------9--------8--------|

Play Verse again
                                                                             Outro 

-----9--------9--------9--------9-----|-----9--------9--------9--------9-----
--------8--------8--------8--------8--|--------8--------8--------8--------8--
--------------------------------------|--------------------------------------
--9--------9--------9--------9--------|--9--------9--------9--------9--------


                                                                              
-----8--------8--------8--------x--4--|-----9--------9--------9--------9-----
--------9--------9--------9-----------|--------6--------6--------8--------8--
--------------------------------------|--------------------------------------
--7--------7--------7--------7--------|--9--------9--------9--------9--------


                                
-----8--------8---------------||
--------9--------9--(9)-------||
------------------------------||
--7--------7------------------||

| /  slide up
| \  slide down
| h  hammer-on
| p  pull-off
| ~  vibrato
| +  harmonic
| x  Mute note
===============================================================================
Suggest correction
comments
print report bad tab
2 comments total.
0 reply
ratbollocks 687 Jun 17, 2006 03:25 AM

you have tabbed pretty much what the guitar plays - this is pretty wrong dude.

0 reply
iampinkfloyd 211 Jun 17, 2006 01:59 PM

yes, thats pretty much the point, arranging it so you can play it on bass, so its supposed to be the same.

guest
You may want to rate the tab now too:
select rating
Wanna post a correction for this tab? Suggest correction