Oops, an error
Loading. Please wait.
We have an official Orchid tab made by UG professional guitarists. Check out the tab »
×

Orchid tab

version 3
version 3

Whole song

Interactive

2,756 views 24 this week
1 commentread comment
1 2 3 4 5
x 5
add to favorites
×
Save as Personal and add changes to this tab that will be seen only by you. Learn more ›
×
You can save this tab as Personal to edit and correct it or add notes. All changes will be seen only by you. Learn more »
launch autoscroll
font size
0
reset
how to read this tab
guitar tuner
edit
Autoscroll
slow
fast
+/-
esc
set tempo
stop
Author
Difficulty
About this tab version
This version is in the correct tuning and key and uses the right fingering. The other "tab" versions are wrong. Was this info helpful? Yes No
Orchid
Black Sabbath

Tune down 1 ½ steps!

C#|--3--------5.-------7-------|-----12-------10.---12.-----|
G#|----------------------------|----------------------------|
E |----------------------------|----------------------------|
B |--2--------4.-------5-------|-----10-------9.----10.-----|
F#|----------------------------|----------------------------|
C#|----------------------------|----------------------------|


--7--------7--------7-------|-----7--------7.----7.------|
----------------------------|----------------------------|
----------------------------|----------------------------|
--5--------5--------5-------|-----5--------5.----5.------|
----------------------------|----------------------------|
----------------------------|----------------------------|


-----2--------2--------2--------2-------|
--------3--------3--------3--------3----|
----------------------------------------|
--0--------0--------0--------0----------|
----------------------------------------|
----------------------------------------|


-----2--------2--------2--------2-------|
--------3--------3--------3--------3----|
----------------------------------------|
--0--------0--------0--------0----------|
----------------------------------------|
----------------------------------------|


-----3--------3--------3--------3-------|
--------0--------0--------0--------0----|
----------------------------------------|
--2--------2--------2--------2----------|
----------------------------------------|
----------------------------------------|


-----3--------3--------3--------3-------|
--------0--------0--------0--------0----|
----------------------------------------|
--2--------2--------2--------2----------|
----------------------------------------|
----------------------------------------|


-----3--------3--------3--------3-------|
--------2--------2--------2--------2----|
----------------------------------------|
--2--------2--------2--------2----------|
----------------------------------------|
----------------------------------------|


-----3--------3--------3--------3-------|
--------2--------2--------2--------2----|
----------------------------------------|
--2--------2--------2--------2----------|
----------------------------------------|
----------------------------------------|


-----2--------2--------2--------2-------|
--------3--------3--------3--------3----|
----------------------------------------|
--0--------0--------0--------0----------|
----------------------------------------|
----------------------------------------|


-----2--------2--------2--------2-------|
--------3--------3--------3--------3----|
----------------------------------------|
--0--------0--------0--------0----------|
----------------------------------------|
----------------------------------------|


-----2--------2--------2--------2-------|
--------3--------3--------3--------3----|
----------------------------------------|
--0--------0--------0--------0----------|
----------------------------------------|
----------------------------------------|


-----2--------2--------2--------2-------|
--------3--------3--------3--------3----|
----------------------------------------|
--0--------0--------0--------0----------|
----------------------------------------|
----------------------------------------|


-----3--------3--------3--------3-------|
--------0--------0--------0--------0----|
----------------------------------------|
--2--------2--------2--------2----------|
----------------------------------------|
----------------------------------------|


-----3--------3--------3--------3-------|
--------0--------0--------0--------0----|
----------------------------------------|
--2--------2--------2--------2----------|
----------------------------------------|
----------------------------------------|


-----3--------3--------3--------3-------|
--------2--------2--------2--------2----|
----------------------------------------|
--2--------2--------2--------2----------|
----------------------------------------|
----------------------------------------|


-----3--------3--------3--------3-------|
--------2--------2--------2--------2----|
----------------------------------------|
--2--------2--------2--------2----------|
----------------------------------------|
----------------------------------------|


-----2--------2--------2--------2-------|
--------3--------3--------3--------3----|
----------------------------------------|
--0--------0--------0--------0----------|
----------------------------------------|
----------------------------------------|


-----2--------2--------2--------0-------|
--------3--------3--------3--------0----|
----------------------------------------|
--0--------0--------0--------0----------|
----------------------------------------|
----------------------------------------|


-----7--------7--------7--------7-------|
--------0--------0--------0--------0----|
----------------------------------------|
--5--------5--------5--------5----------|
----------------------------------------|
----------------------------------------|


-----7--------10-------9--------7-------|
--------0--------0--------0--------0----|
----------------------------------------|
--5--------9--------7--------5----------|
----------------------------------------|
----------------------------------------|


-----2--------2--------2--------2-------|
--------3--------3--------3--------3----|
----------------------------------------|
--0--------0--------0--------0----------|
----------------------------------------|
----------------------------------------|


-----2--------2--------2--------0-------|
--------3--------3--------3--------0----|
----------------------------------------|
--0--------0--------0--------0----------|
----------------------------------------|
----------------------------------------|


-----7--------7--------7--------7-------|
--------0--------0--------0--------0----|
----------------------------------------|
--5--------5--------5--------5----------|
----------------------------------------|
----------------------------------------|


-----7--------10-------9--------7-------|
--------0--------0--------0--------0----|
----------------------------------------|
--5--------9--------7--------5----------|
----------------------------------------|
----------------------------------------|


-----2--------2--------2--------2-------|
--------3--------3--------3--------3----|
----------------------------------------|
--0--------0--------0--------0----------|
----------------------------------------|
----------------------------------------|


-----2--------2--------2--------0-------|
--------3--------3--------3--------0----|
----------------------------------------|
--0--------0--------0--------0----------|
----------------------------------------|
----------------------------------------|


-----5--------5--------5--------5-------|
--------4--------4--------4--------4----|
----------------------------------------|
--4--------4--------4--------4----------|
----------------------------------------|
----------------------------------------|


-----5--------5--------3--------2-------|
--------4--------4--------2--------1----|
----------------------------------------|
--4--------4--------2--------1----------|
----------------------------------------|
----------------------------------------|


-----3--------3--------3--------3-------|
--------2--------2--------2--------2----|
----------------------------------------|
--2--------2--------2--------2----------|
----------------------------------------|
----------------------------------------|


-----3--------3--------3--------3-------|
--------2--------2--------2--------2----|
----------------------------------------|
--2--------2--------2--------2----------|
----------------------------------------|
----------------------------------------|


-----2--------2--------2--------2-------|
--------3--------3--------3--------3----|
----------------------------------------|
--0--------0--------0--------0----------|
----------------------------------------|
----------------------------------------|


-----2--------2--------2--------2-------|
--------3--------3--------3--------3----|
----------------------------------------|
--0--------0--------0--------0----------|
----------------------------------------|
----------------------------------------|


-----3--------3--------3--------3-------|
--------0--------0--------0--------0----|
----------------------------------------|
--2--------2--------2--------2----------|
----------------------------------------|
----------------------------------------|


-----3--------3--------3--------3-------|
--------0--------0--------0--------0----|
----------------------------------------|
--2--------2--------2--------2----------|
----------------------------------------|
----------------------------------------|


-----3--------3--------3--------3-------|
--------2--------2--------2--------2----|
----------------------------------------|
--2--------2--------2--------2----------|
----------------------------------------|
----------------------------------------|


-----3--------3--------3--------3-------|
--------2--------2--------2--------2----|
----------------------------------------|
--2--------2--------2--------2----------|
----------------------------------------|
----------------------------------------|


-----2--------2--------2--------2-------|
--------3--------3--------3--------3----|
----------------------------------------|
--0--------0--------0--------0----------|
----------------------------------------|
----------------------------------------|


-----2--------2--------2--------2-------|
--------3--------3--------3--------3----|
----------------------------------------|
--0--------0--------0--------0----------|
----------------------------------------|
----------------------------------------|


-----2--------2--------2--------2-------|
--------3--------3--------3--------3----|
----------------------------------------|
--0--------0--------0--------0----------|
----------------------------------------|
----------------------------------------|


-----2--------2--------2--------3-------|
--------3--------3--------3--------0----|
----------------------------------------|
--0--------0--------0--------0----------|
----------------------------------------|
----------------------------------------|


-----3--------3--------3--------3-------|
--------0--------0--------0--------0----|
----------------------------------------|
--2--------2--------2--------2----------|
----------------------------------------|
----------------------------------------|


-----3--------3--------3--------3-------|
--------0--------0--------0--------0----|
----------------------------------------|
--2--------2--------2--------2----------|
----------------------------------------|
----------------------------------------|


-----3--------3--------3--------3-------|
--------2--------2--------2--------2----|
----------------------------------------|
--2--------2--------2--------2----------|
----------------------------------------|
----------------------------------------|


-----3--------3--------3--------3-------|
--------2--------2--------2--------2----|
----------------------------------------|
--2--------2--------2--------2----------|
----------------------------------------|
----------------------------------------|


-----2--------2--------2--------2-------|
--------3--------3--------3--------3----|
----------------------------------------|
--0--------0--------0--------0----------|
----------------------------------------|
----------------------------------------|


-----3--------3--------3--------3-------|
--------0--------0--------2--------2----|
----------------------------------------|
--2--------2--------2--------2----------|
----------------------------------------|
----------------------------------------|


-----2--------2-------------------------|----------||
--------3--------3----------------------|----------||
----------------------------------------|----------||
--0--------0--------0-------------------|----------||
----------------------------------------|----------||
----------------------------------------|----------||


            
            
Suggest correction
Creating personal tab
Creating personal tab
You can edit any tab online and save it as your Personal.

You can edit, replace or remove any tab part or add personal notes – all changes will be seen only by you.

Personal tabs can be accessed anytime from any device, even offline.
Learn more »
comments
print report bad tab
1 comment total.
0 reply
stevesyda1 12 Jun 27, 2017 11:17 PM, edited on June 28 2017, 03:44 am

Thank you for finally clearing this up, I can't even believe how many different ways people play this.

guest
You may want to rate the tab now too:
select rating
Wanna post a correction for this tab? Suggest correction