Oops, an error
Loading. Please wait.

Over To You Tab

version 1
version 1

Whole song

Interactive

784 views 1 this week
no commentswrite comment
1 2 3 4 5
excellent!
x 2
add to favorites
launch autoscroll
font size
0
reset
how to read this tab
guitar tuner
Tab Pro tools
  • play this tab
  • loop segment
  • change instrument
  • show fretboard
  • metronome
Autoscroll
slow
fast
+/-
esc
set tempo
stop
Contributor
Difficulty
advanced
Song: Over To You                                   
Artist: Black Sabbath
Album: Never Say Die!
Year: 1978

[A]: Intro (w/ Fill A)

     [---------PM---------]     [---------PM---------]
     E  E  E  E  E  E  E  E     E  E  E  E  E  E  E  E
E||--------------------------|--------------------------|
B||--------------------------|--------------------------|
G||--------------------------|--------------------------|
D||--------------------------|--------------------------|
A||--2--2--2--2--2--2--2--2--|--2--2--2--2--2--2--2--2--|
E||--------------------------|--------------------------|

[B]: Main Riff  (w/ Fill B)     (x4)
     E  Q    Q    Q    E     E  E  Q    H
|-----------------------|------------------------|
|--5--5----5----5----5--|------------------------|
|--4--4----4----4----4--|--L--4--4----4----------|
|--2--2----2----2----2--|--L--4--4----4----------|
|-----------------------|-----2--2----2----------|
|-----------------------|------------------------|

[C]: Verses     (w/ Fill C)     (x4)|
   E  E  E  E  E  E  E  E     E  E  E  E  E  E  Q       E  E  E  E  E  E  E  E   |
|--------------------------|-------------------------|--------------------------||
|--------------------------|-------------------------|-----------------------3--||
|--------2-----2--------2--|--------4-----4-----4----|--------2-----2--------2--||
|--------2-----2--------2--|--------4-----4-----4----|--------2-----2-----------||
|--2--2-----2-----2--2-----|--2--2-----2-----2-------|--2--2-----2-----2--2-----||
|--------------------------|-------------------------|--------------------------||


  E  Q    Q    E  E  E
------------------------|
--L---------------------|
--L--2----4----4-----4--|
-----2----4----4-----4--|
------------------2-----|
------------------------|


[D]: Bridges
   W         W         W         W         W         W         W         W
|--2------|--2------|--2------|--2------|--3------|--0------|--2------|--L------|
|--2------|--4------|--2------|--4------|--0------|--2------|--4------|--L------|
|--3------|--4------|--3------|--4------|--0------|--2------|--4------|--L------|
|--4------|--4------|--4------|--4------|--0------|--2------|--4------|--L------|
|-Fill D--|-Fill D--|-Fill D--|-Fill D--|-Fill E--|-Fill F--|-Fill G--|-Fill H--|
|---------|---------|---------|---------|---------|---------|---------|---------|


   W         W         W         W         W         W         W       |
|--2------|--2------|--2------|--2------|--3------|--0------|--2------||
|--2------|--4------|--2------|--4------|--0------|--2------|--4------||
|--3------|--4------|--3------|--4------|--0------|--2------|--4------||
|--4------|--4------|--4------|--4------|--0------|--2------|--4------||
|-Fill D--|-Fill D--|-Fill D--|-Fill D--|-Fill I--|-Fill J--|-Fill G--||
|---------|---------|---------|---------|---------|---------|---------||

  S E  E  S E  H     W      H. S  S S  S
--2-2--2--2-2--L--|--L--|--L-------------|
--4-4--4--4-4--L--|--L--|--L-------------|
--4-4--4--4-4--L--|--L--|--L-------------|
--4-4--4--4-4--L--|--L--|--L--2h-4-------|
--2-2--2--2-2-----|-----|----------2--2--|
-----Fill K-------|FILLG|--Fill L--------|


[E]: Choruses   (x4)

   E  E  E   E  E  E  E  E      E  Q    E   Q    S  S S S  
|--------5s--7--5--------5s--|--7--5----5s--7-------------|
|--------3s--5--3--------3s--|--5--3----3s--5-------------|
|--------2s--4--2--------2s--|--4--2----2s--4-------------|
|----------------------------|-------------------2h-4-----|
|--2--2------------2--2------|------------------------2-2-|
|----------------------------|----------------------------|

FILLS:

Fill A:
       W                                W                 
E||----------------------------------|-------------------|
B||----0-----------------------------|--L----------------|
G||----------------------------------|-------------------|
D||----------------------------------|-------------------|
A||--<>2-----------------------------|--L----------------|
E||----------------------------------|-------------------|

Fill B:
                                          NH        |-3-|
    E    Q      H          E     E    E    H        S S Q
--<>7----L----<>7--------<>7--|--L----L--<>7-----------------|
-------<>5----<>5----------L--|--L--<>5--<>5-----------------|
------------------------------|------------------------------|
------------------------------|-------------------------2----|
------------------------------|---------------------2-3------|
------------------------------|------------------------------|

FILL C:
  Q    H      Q       Q    Q    Q    Q       Q    H    Q       E  Q    Q    Q    E
-------------------|----------------------|-----------------|-----------------------|
-------------------|----------------------|------------3----|--L--------------------|
-------2-----------|-------4----4----4----|-------2----2----|--L--2----4----4----4--|
-------2-----------|-------4----4----4----|-------2---------|-----2----4----4----4--|
--2-----------2----|--2-------------------|--2---------2----|-----------------------|
-------------------|----------------------|-----------------|-----------------------|

FILL D:
  S  S  S  S  S  S  E
--14----------------14-----------|
-----16----------16--------------|
--------16----16-----------------|
-----------16--------------------|
---------------------------------|
---------------------------------|

FILL E:
  S  S  S  S  S  S  E   S  S  S  S  S  S  S  S  
--15----------------15-----22----17-24----17-22-|
-----12----------12-----22----20-------20-------|
--------12----12--------------------------------|
-----------12-----------------------------------|
------------------------------------------------|
------------------------------------------------|

FILL F:
   T  T  T  T  T  T  T  T  T  T  T  T  T  T  T  T  S  S  S  S  S  S  E   
-----19-22-24----17-19-22----15-17-19----12-15-17-12----------------12--|
--22----------20----------17----------15-------------14----------14-----|
--------------------------------------------------------14----14--------|
-----------------------------------------------------------14-----------|
------------------------------------------------------------------------|
------------------------------------------------------------------------|

FILL G:
   S  S  S  S  S  S  E   S  S  E   S  S  E   
--14----------------14------------------14--|
-----16----------16-----16-----------16-----|
--------16----16-----------16-----16--------|
-----------16-----------------16------------|
--------------------------------------------|
--------------------------------------------|

FILL H:
  T T T T T T T T  T T  T  T  T  T  T  T  T  T  T  T  Q.      
--------------------------------10-12-13-15-17-20-22-24------|
---------------------8-10-11-13-----------8-10-13----17------|
--------2-3-5-7-9-10-------------7--9-10----------19---------|
--2-3-5--------------5--7--8-10------------------------------|
--------0-1-3-5-7--8-----------------------------------------|
--0-1-3------------------------------------------------------|

FILL I:
   S  S  S  S  S  S  E  H
--15----------------15------|
-----12----------12---------|
--------12----12------------|
-----------12---------------|
----------------------------|
----------------------------|

FILL J:
   S  S  S  S  S  S  E  H         
--12----------------12-----------|
-----14----------14--------------|
--------14----14-----------------|
-----------14-12-----------------|
-----------------12-12-----------|
---------------------------------|

FILL K:
  S E  E  S E   S  S  S  S  S  S  E   
--2-2--2--2-2--14----------------14--|
--4-4--4--4-4-----16----------16-----|
--4-4--4--4-4--------16----16--------|
--4-4--4--4-4-----------16-----------|
--2-2--2--2-2------------------------|
-------------------------------------|

FILL L:
                               |--3--|  |--3--|  |--|
  S E  E  S E   S  S  S  S  S  T  T  T  T  T  T  T  S
--2-2--2--2-2--14-------------------------------------|
--4-4--4--4-4-----16----------21-20-19-18-17-16-15-14-|
--4-4--4--4-4--------16----16-------------------------|
--4-4--4--4-4-----------16----------------------------|
--2-2--2--2-2-----------------------------------------|
------------------------------------------------------|

Song Structure:

A, B, C, D, E
B, C, D, E
A, B, C, E

Outro is same as chorus
comments
We did not receive enough feedback on this tab! Please rate:
print report bad tab
1 2 3 4 5
I want to post or [tab]
guest
You may want to rate the tab now too:
select rating
Please do not post tabs as comments. Select "correction" instead!