Oops, an error
Loading. Please wait.

Paranoid Tab

version 4
24,444 views 30 this week
2 commentsread comments
1 2 3 4 5
accurate
x 10
add to favorites
launch autoscroll
font size
0
reset
how to read this tab
guitar tuner
Tab Pro tools
  • play this tab
  • loop segment
  • change instrument
  • show fretboard
  • metronome
×
Best way to learn
"Paranoid"
Autoscroll
slow
fast
+/-
esc
set tempo
stop
PARANOID by Black Sabbath
Tabbed by Will Fuller (isthatmycow)

*regular tuning*

this is the tab start to finish

|----------------------------------------------------------
|----------------------------------------------------------
|--7h9--7h9--7h9-----7h9-----7h9-7h9--7h9--7h9-----7h9-----
|--7h9--7h9--7h9-7h9-----7h9-----7h9--7h9--7h9-7h9-----7h9-
|--7----7----7-------------------7----7----7---------------
|----------------------------------------------------------

|----------------------------------------------------------
|----------------------------------------------------------
|-7h9-7h9--7h9--7h9-----7h9-----7h9-7h9--7h9--7h9-----7h9--
|-----7h9--7h9--7h9-7h9-----7h9-----7h9--7h9--7h9-7h9------
|-----7----7----7-------------------7----7----7------------
|----------------------------------------------------------
      ^bass comes in
|----------------------------------------------------------
|----------------------------------------------------------
|-----7h9---------------------------------7-7-7-7-7-7-7\-12
|-7h9-----9-9-9-9-9-9-9-9-9-9-9-9-9-9-9/7-7-7-7-7-7-7-7\-12
|---------7-7-7-7-7-7-7-7-7-7-7-7-7-7-7/5-5-5-5-5-5-5-5\-12
|---------0-0-0-0-0-0-0-0-0-0-0-0-0-0-0--------------------
         finished with my woman cuz she couldn't help me w/
|----------------------------------------------------------
|--------12------------------------------------------------
|-7---9--12--------------------------------7-7-7-7-7-7-7-7\
|-7---9------9-9-9-9-9-9-9-9-9-9-9-9-9-9-9/7-7-7-7-7-7-7-7\
|-5---7------7-7-7-7-7-7-7-7-7-7-7-7-7-7-7/5-5-5-5-5-5-5-5\
|------------0-0-0-0-0-0-0-0-0-0-0-0-0-0-0-----------------
  my mind    people think im insane becuz  i am  frowning

|----------------------------------------------------------
|----------12----------------------------------------------
|12-7---9--12--9~-----------/--5~----7~--------------------
|12-7---9------9~-----------/--5~----7~----9-9-9-9-9-9-9-9-
|10-5---7------7~-----------/--3~----5~----7-7-7-7-7-7-7-7-
|------------------------------------------0-0-0-0-0-0-0-0-
all the time

|----------------------------------------------------------
|----------------------------------------------------------
|-----------------9~-----------/--5~----7~-----------------
|-9-9-9-9-9-9-9-9-9~-----------/--5~----7~----9-9-9-9-9-9-9
|-7-7-7-7-7-7-7-7-7~-----------/--3~----5~----7-7-7-7-7-7-7
|-0-0-0-0-0-0-0-0-----------------------------0-0-0-0-0-0-0

|----------------------------------------------------------
|----------------------------------------------------------
|-------------------------------------------------7-7-7-7--
|-9-9-9-9-9-9-9-9-9-9-9-9-9-9-9-9-9-9-9-9-9-9-9-9/7-7-7-7--
|-7-7-7-7-7-7-7-7-7-7-7-7-7-7-7-7-7-7-7-7-7-7-7-7/5-5-5-5--
|-0-0-0-0-0-0-0-0-0-0-0-0-0-0-0-0-0-0-0-0-0-0-0-0/---------
                    all d. lng i thnk of thngs but nothing

|----------------------------------------------------------
|--------------------12------------------------------------
|-7-7-7-7\-12-7---9--12--------------------------------7-7-
|-7-7-7-7\-12-7---9------9-9-9-9-9-9-9-9-9-9-9-9-9-9-9/7-7-
|-5-5-5-5\-10-5---7------7-7-7-7-7-7-7-7-7-7-7-7-7-7-7/5-5-
|------------------------0-0-0-0-0-0-0-0-0-0-0-0-0-0-0-----
 seems to  satis  fy     thnk ill lose my mind if i dont fi

|----------------------------------------------------------
|----------------------------------------------------------
|-7-7-7-7-7-7-7\-12-7---9------9~-----------------7~-------
|-7-7-7-7-7-7-7\-12-5---9------9~-----------------7~-------
|-5-5-5-5-5-5-5\-10-5---7------7~-----------------5~-------
|----------------------------------------------------------
  nd something to paci fy        can you help me    occupy

|----------------------------------------------------------
|----------------------------------------------------------
|----------9~-----------------7~---------------------------
|----------9~-----------------7~-----------------9-9-9-9-9-
|----------7~-----------------5~-----------------7-7-7-7-7-
|------------------------------------------------0-0-0-0-0-
  my       brain       oh     yeah

|----------------------------------------------------------
|------------------------------------------------12--------
|---------------------7-7-7-7-7-7-7-7\-12-7---9--12--------
|-9-9-9-9-9-9-9-9-9-9/7-7-7-7-7-7-7-7\-12-7---9------9-9-9-
|-7-7-7-7-7-7-7-7-7-7/5-5-5-5-5-5-5-5\-10-5---7------7-7-7-
|-0-0-0-0-0-0-0-0-0-0--------------------------------0-0-0-

|----------------------------------------------------------
|----------------------------------------------------12----
|-------------------------7-7-7-7-7-7-7-7\-12-7---9--12----
|-9-9-9-9-9-9-9-9-9-9-9-9/7-7-7-7-7-7-7-7\-12-7---9------9-
|-7-7-7-7-7-7-7-7-7-7-7-7/5-5-5-5-5-5-5-5\-10-5---7------7-
|-0-0-0-0-0-0-0-0-0-0-0-0--------------------------------0-
                                                         i

|----------------------------------------------------------
|-------------------------------------------------------12-
|-----------------------------7-7-7-7-7-7-7-7\-12-7---9-12-
|-9-9-9-9-9-9-9-9-9-9-9-9-9-9/7-7-7-7-7-7-7-7\-12-7---9----
|-7-7-7-7-7-7-7-7-7-7-7-7-7-7/5-5-5-5-5-5-5-5\-10-5---7----
|-0-0-0-0-0-0-0-0-0-0-0-0-0-0------------------------------
  need someone to show me th thngs in life that i cnt find

|----------------------------------------------------------
|----------------------------------------------------------
|-------------------------------7-7-7-7-7-7-7-7\-12--7---9-
|-9-9-9-9-9-9-9-9-9-9-9-9-9-9-9/7-7-7-7-7-7-7-7\-12--7---9-
|-7-7-7-7-7-7-7-7-7-7-7-7-7-7-7/5-5-5-5-5-5-5-5\-10--5---7-
|-0-0-0-0-0-0-0-0-0-0-0-0-0-0-0----------------------------
 i cnt see th thngs tht mke true   happiness  i  mst b blind

*solo*
|----------------------------------------------------------
|----------------------------------------------------------
|-10^---9---9----9-----------------------------------------
|----12-------12---12-9/8----------------------------------
|-------------------------10h12-10h12p10----10-------------
|---------------------------------------h12----12-12--10h12

|----------------------------------------------------------
|----------------------------------------------------------
|-------------------------12h14-14^-12-14^-14^-12-------12-
|-------9h12-12\14--12h14-------------------------14-14----
|-10h12----------------------------------------------------
|----------------------------------------------------------

|-------------------------------15^-15^-15p13p12-15p13p12--
|---------12h15-15^15-15^-15p12----------------------------
|----------------------------------------------------------
|-14---14--------------------------------------------------
|----------------------------------------------------------
|----------------------------------------------------------

|----------------------------------------------------------
|-15p13p12-15p13p12----------------------------------------
|-------------------14-12-14-14^14-12---14^14-14-12--------
|---------------------------------------------------14-14--
|----------------------------------------------------------
|----------------------------------------------------------

|----------------------------------------------------------
|----------------------------------------------------------
|------------------------------------12--------------------
|---14-13-12----------------12-12h14----14-12--14-12---14--
|------------14-13-12-12h14--------------------------------
|----------------------------------------------------------
*end of solo*


|----------------------------------------------------------
|----------------------------------------------------------
|-------------------------------7-7-7-7-7-7-7-7\-12--7---9-
|-9-9-9-9-9-9-9-9-9-9-9-9-9-9-9/7-7-7-7-7-7-7-7\-12--7---9-
|-7-7-7-7-7-7-7-7-7-7-7-7-7-7-7/5-5-5-5-5-5-5-5\-10--5---7-
|-0-0-0-0-0-0-0-0-0-0-0-0-0-0-0----------------------------

|----------------------------------------------------------
|-12-------------------------------------------------------
|-12-------------------------------7-7-7-7-7-7-7-7\-12--7--
|----9-9-9-9-9-9-9-9-9-9-9-9-9-9-9/7-7-7-7-7-7-7-7\-12--7--
|----7-7-7-7-7-7-7-7-7-7-7-7-7-7-7/5-5-5-5-5-5-5-5\-10--5--
|----0-----------------------------------------------------

|----------------------------------------------------------
|---12-----------------------------------------------------
|-9-12-------------------------------7-7-7-7-7-7-7-7\-12--7
|-9----9-9-9-9-9-9-9-9-9-9-9-9-9-9-9/7-7-7-7-7-7-7-7\-12--7
|-7----7-7-7-7-7-7-7-7-7-7-7-7-7-7-7/5-5-5-5-5-5-5-5\-10--5
|------0-0-0-0-0-0-0-0-0-0-0-0-0-0-0-----------------------
       make a joke and i will sigh and u wil laugh &  i will

|----------------------------------------------------------
|---12-----------------------------------------------------
|-9-12-------------------------------7-7-7-7-7-7-7-7\-12--7
|-9----9-9-9-9-9-9-9-9-9-9-9-9-9-9-9/7-7-7-7-7-7-7-7\-12--7
|-7----7-7-7-7-7-7-7-7-7-7-7-7-7-7-7/5-5-5-5-5-5-5-5\-10--5
|------0-0-0-0-0-0-0-0-0-0-0-0-0-0-0-----------------------
 cry   happiness i cannot feel and   love to me is    so un-

|----------------------------------------------------------
|----------------------------------------------------------
|-9-----9~-----------\--5~----7~---------------------------
|-9-----9~-----------\--5~----7~----9-9-9-9-9-9-9-9-9-9-9-9
|-7-----7~-----------\--3~----5~----7-7-7-7-7-7-7-7-7-7-7-7
|-----------------------------------0-0-0-0-0-0-0-0-0-0-0-0
 real

|----------------------------------------------------------
|----------------------------------------------------------
|---------9~-----------\--5~----7~-------------------------
|-9-9-9-9-9~-----------\--5~----7~----9-9-9-9-9-9-9-9-9-9-9
|-7-7-7-7-7~-----------\--3~----5~-------------------------
|-0-0-0-0--------------------------------------------------

|----------------------------------------------------------
|----------------------------------------------------------
|-------------------------------------------7-7-7-7-7-7-7--
|-9-9-9-9-9-9-9-9-9-9-9-9-9-9-9-9-9-9-9-9-9/7-7-7-7-7-7-7--
|-7-7-7-7-7-7-7-7-7-7-7-7-7-7-7-7-7-7-7-7-7/5-5-5-5-5-5-5--
|-0-0-0-0-0-0-0-0-0-0-0-0-0-0-0-0-0-0-0-0-0----------------
              & so as u hear these words telling you   now

|----------------------------------------------------------
|--------------12------------------------------------------
|7\-12--7---9--12--------------------------------7-7-7-7-7-
|7\-12--5---9------9-9-9-9-9-9-9-9-9-9-9-9-9-9-9/7-7-7-7-7-
|5\-10--5---7------7-7-7-7-7-7-7-7-7-7-7-7-7-7-7/5-5-5-5-5-
|------------------0-0-0-0-0-0-0-0-0-0-0-0-0-0-0-----------
    of my   fate   i tell u to enjoy life i     wish i could

|----------------------------------------------------------
|-------------------12-------------------------------------
|-7-7-7\-12--7---9--12--------------------------------7-7-7
|-7-7-7\-12--5---9------9-9-9-9-9-9-9-9-9-9-9-9-9-9-9/7-7-7
|-7-7-5\-10--5---7------7-7-7-7-7-7-7-7-7-7-7-7-7-7-7/5-5-5
|-----------------------0-0-0-0-0-0-0-0-0-0-0-0-0-0-0------
  but    its too late

|----------------------------------------------------------
|-----------------------12---------------------------------
|-7-7-7-7-7\-12--7---9--12--------------------------------7
|-7-7-7-7-7\-12--7---9------9-9-9-9-9-9-9-9-9-9-9-9-9-9-9/7
|-5-5-5-5-5\-10--5---7------7-7-7-7-7-7-7-7-7-7-7-7-7-7-7/5
|---------------------------0-0-0-0-0-0-0-0-0-0-0-0-0-0-0--

|--------------------------
|--------------------------
|-7-7-7-7-7-7-7\-12--7---9-
|-7-7-7-7-7-7-7\-12--7---9-
|-5-5-5-5-5-5-5\-10--5---7-
|--------------------------

leave your comments please

thanks 

will
comments
print report bad tab
2 comments total.
0 reply
Impellitteri wrote on March 27 2002, 12:00 am

Lay off the fuckin crack buddy!! Are u sure u got the right song?? This tab BLOWS!!

-2 reply
Metal_(Brazil) wrote on May 11 2002, 12:00 am

é isso aí !

I want to post or [tab]
guest
You may want to rate the tab now too:
select rating
Please do not post tabs as comments. Select "correction" instead!