Oops, an error
Loading. Please wait.

Paranoid Bass Tab

version 6
69,054 views 45 this week
3 commentsread comments
1 2 3 4 5
x 16
add to favorites
launch autoscroll
font size
0
reset
guitar tuner
Autoscroll
slow
fast
+/-
esc
set tempo
stop
Help us to improve Ultimate-Guitar.com Take our survey!
×
Song: Paranoid
Band: Black Sabbath
Tabber: Jordash - ktulu@ultra.net.au

[INTRODUCTION]
        w 4     Q Q q   e e e e e e e e 2  
G||---|-----|----------|-----7-9-----7-9--|
D||4--|--R--|----------|-7-9-----7-9------|
A||4--|-----|--2/7-7-7-|------------------|
E||---|-----|----------|------------------|

[PATTERN ONE]
   e e e e e e e e   e e e e e e e e   e e e e e e e e   e Q q q  
G|-----------------|-----------------|-----------------|---------|
D|-----------------|-----------------|-----------------|-5-------|
A|-7-7-7-7-7-7-7-7-|-7-7-7-7-7---5h7-|-5-5-5-5-5-5-5-5-|---5-7---|
E|-----------------|-----------7-----|-----------------|---------|

[PATTERN TWO]
   e e e e e e e e   e e q e e q   e e e e e e e e   e e e e e e e e  
G|-----------------|-----5-----7-|-----------------|-----------------|
D|-----------------|---5-----7---|-----------------|-----------------|
A|-7-7-7-7-7-7-7-7-|-3-----5-----|-7-7-7-7-7-7-7-7-|-7-7-7-7-7-7-7-7-|
E|-----------------|-------------|-----------------|-----------------|

[PATTERN THREE]
    e e e e e e e e     e e e e e e e e   
G|----9---9---9---9--|----7---7---7---7--|
D|-------------------|-------------------|
A|--7---7---7---7----|--5---5---5---5----|
E|-------------------|-------------------|

[PERFORMANCE NOTES]
[Introduction]
[Pattern One] (Two Repeats)
[Pattern Two] (Two Repeats)
[Pattern One] (Two Repeats)
[Pattern Three] (Two Repeats)
[Pattern One] (Twelve Repeats)
[Pattern Two] (Two Repeats)
[Pattern One] (Four Repeats)

************************************

| /  Slide up
| h  Hammer-on

************************************
Suggest correction
comments
print report bad tab
3 comments total.
0 reply
21UBF21 0 Apr 21, 2002 12:00 AM

Good tab. Kthulu rocks

0 reply
andyrobsonetc 100 Apr 01, 2005 12:00 AM

How is this only 3* ?? its spot on, great tab mother***er!

0 reply
bakerbassist99 10 Oct 30, 2008 10:55 PM

this is a great one

guest
You may want to rate the tab now too:
select rating
Wanna post a correction for this tab? Suggest correction