Oops, an error
Loading. Please wait.

Paranoid Tab

version 6
118,878 views 93 this week
48 commentsread comments
1 2 3 4 5
accurate
x 100
add to favorites
launch autoscroll
font size
0
reset
how to read this tab
guitar tuner
Autoscroll
slow
fast
+/-
esc
set tempo
stop
Help us to improve Ultimate-Guitar.com Take our survey!
×
Author
e|----------------------|
B|----------------------|
G|--9-9-9----7h9---7h9--|
D|--9-9-9-7h9---7h9-----|   
A|--7-7-7---------------|
E|----------------------|(x4)

e|---------------------------------------------------------------|
B|--------------------------------------------------7------------|
G|--9-9-9-9-9-9-9-9-9-9-9-9-9-9-9-9-7-7-7-7-7-7-7-7-7-7-9--------|
D|--9-9-9-9-9-9-9-9-9-9-9-9-9-9-9-9-7-7-7-7-7-7-7-7-5-7-9--------|
A|--7-7-7-7-7-7-7-7-7-7-7-7-7-7-7-7-5-5-5-5-5-5-5-5---5-7--------|
E|---------------------------------------------------------------|

e|--------------------------------------------------------------|
B|-------------------------------------------------7------------|
G|--9-9-9-9-9-9-9-9-9-9-9-9----7h9-7-7-7-7-7-7-7-7-7-7-9--------|
D|--9-9-9-9-9-9-9-9-9-9-9-9-7h9----7-7-7-7-7-7-7-7-5-7-9--------|
A|--7-7-7-7-7-7-7-7-7-7-7-7--------5-5-5-5-5-5-5-5---5-7--------|
E|--------------------------------------------------------------|

e|------------------|
B|------------------|
G|--9-9/5-5-5/7-7-7-| THIS IS WHATS PLAYED IN THE " CAN YOU HELP ME" BIT
D|--9-9/5-5-5/7-7-7-|                JUST ALOT SLOWER
A|--7-9/3-3-3/5-5-5-|
E|------------------|

PLAYED THROUGHOUT


[Solo]

e|---------------------------------------------------------|
B|---------------------------------------------------------|
G|---------------------------------------------------------|
D|-15b16b16-12-14---14-12-14-12----------------------------|
A|------------------------------14-12-10h12-10h12-------10-|
E|------------------------------------------------10h12----|

e|---------------------------------------------------------|
B|---------------------------------------------------------|
G|---------------------------------------12h14-14b16b14-12-|
D|-----------------------12h14-14--12h14-------------------|
A|-----------10\12-12h14-----------------------------------|
E|-12--12-12-----------------------------------------------|

e|---------------------------------------------12----|
B|---------------------------------------12h15----15-|
G|-14b16b14-12h14--12--------------------------------|
D|--------------------14-14--12h14-14-14-------------|
A|---------------------------------------------------|
E|---------------------------------------------------|

e|-------------------------15b17-(17)-17b15-19p15p12-|
B|-15b17b15-15b17b15-15-12---------------------------|
G|---------------------------------------------------|
D|---------------------------------------------------|
A|---------------------------------------------------|
E|---------------------------------------------------|

e|-19p15p12-------------------------------------------------|
B|----------15p14p12-12h15-15p12----------------------------|
G|-------------------------------h14-14-12-14-14b16b14-12---|
D|----------------------------------------------------------|
A|----------------------------------------------------------|
E|----------------------------------------------------------|

e|-----------------------------------------------------------|
B|-----------------------------------------------------------|
G|-14b16b14-12h14p12-12--------------------------------------|
D|----------------------h14-14p12-----12---------------------|
A|--------------------------------h14-----14p12-12-----12h14-|
E|-------------------------------------------------h15-------|

e|----------------------------------|
B|-------------------------------12-|
G|-----------12------------------12-|
D|-12--12h14----14-12--14-12--14-12-|
A|----------------------------------|
E|----------------------------------|

THEN BACK TO THE:

e|---------------------------------------------------------------|
B|--------------------------------------------------7------------|
G|--9-9-9-9-9-9-9-9-9-9-9-9-9-9-9-9-7-7-7-7-7-7-7-7-7-7-9--------|
D|--9-9-9-9-9-9-9-9-9-9-9-9-9-9-9-9-7-7-7-7-7-7-7-7-5-7-9--------|
A|--7-7-7-7-7-7-7-7-7-7-7-7-7-7-7-7-5-5-5-5-5-5-5-5---5-7--------|
E|---------------------------------------------------------------|

e|--------------------------------------------------------------|
B|-------------------------------------------------7------------|
G|--9-9-9-9-9-9-9-9-9-9-9-9----7h9-7-7-7-7-7-7-7-7-7-7-9--------|
D|--9-9-9-9-9-9-9-9-9-9-9-9-7h9----7-7-7-7-7-7-7-7-5-7-9--------|
A|--7-7-7-7-7-7-7-7-7-7-7-7--------5-5-5-5-5-5-5-5---5-7--------|
E|--------------------------------------------------------------|

e|------------------|
B|------------------|
G|--9-9/5-5-5/7-7-7-|
D|--9-9/5-5-5/7-7-7-|
A|--7-9/3-3-3/5-5-5-|
E|------------------|

************************************

| (n)  Ghost note
| h    Hammer-on
| p    Pull-off
| b    Bend
| /    Slide up
| \    Slide down

************************************
Suggest correction
comments
print report bad tab
48 comments total. Showing first comments. show 1 bad comment
+3 reply
AC/DC_Rocks_Ang 140 wrote on November 1 2004, 12:00 am

hey dumbass intro is way wrong

+9 reply
guitarmaniac17 106 wrote on December 5 2004, 12:00 am

Its ok. try playing the intro like this:
E--------------------------
B--------------------------
G-----------------7h9---7h9
D-7h9-7h9-7h9-7h9----7h9---
A-7---7---7----------------
E--------------------------

guest
You may want to rate the tab now too:
select rating
Please do not post tabs as comments. Select "correction" instead!