Oops, an error
Loading. Please wait.

Paranoid Tab

version 6
117,879 views 27 this week
48 commentsread comments
1 2 3 4 5
accurate
x 97
add to favorites
launch autoscroll
font size
0
reset
how to read this tab
guitar tuner
Tab Pro tools
  • play this tab
  • loop segment
  • change instrument
  • show fretboard
  • metronome
×
Best way to learn
"Paranoid"
Autoscroll
slow
fast
+/-
esc
set tempo
stop
Contributor
E-|---------------------|
B-|---------------------|
G-|-9-9-9----7h9---7h9--|
D-|-9-9-9-7h9---7h9-----|   X4
A-|-7-7-7---------------|
E-|---------------------|

E-|----------------------------------------|
B-|---------------------------7------------|
G-|-9999999999999999-77777777-7-7-9--------|
D-|-9999999999999999-77777777-5-7-9--------|
A-|-7777777777777777-55555555---5-7--------|
E-|----------------------------------------|

E-|-------------------------------------------|
B-|------------------------------7------------|
G-|-999999999999----7h9-77777777-7-7-9--------|
D-|-999999999999-7h9----77777777-5-7-9--------|
A-|-777777777777--------55555555---5-7--------|
E-|-------------------------------------------|

E-|---------------|
B-|---------------|
G-|-9-9/5-55/7-77-| THIS IS WHATS PLAYED IN THE " CAN YOU HELP ME" BIT 
D-|-9-9/5-55/7-77-|                JUST ALOT SLOWER
A-|-7-9/3-33/5-55-|
E-|---------------|

PLAYED THROUGHOUT

solo
E-|---------------------------------------------------------
|---------------------------------------------------------
|---------------------------------------------------------
|-15b16b16-12-14---14-12-14-12----------------------------
|------------------------------14-12-10h12-10h12-------10-
|------------------------------------------------10h12----

|---------------------------------------------------------
|---------------------------------------------------------
|---------------------------------------12h14-14b16b14-12-
|-----------------------12h14-14--12h14-------------------
|-----------10\12-12h14-----------------------------------
|-12--12-12-----------------------------------------------

|---------------------------------------------12----
|---------------------------------------12h15----15-
|-14b16b14-12h14--12--------------------------------
|--------------------14-14--12h14-14-14-------------
|---------------------------------------------------
|---------------------------------------------------

|-------------------------15b17-(17)-17b15-19p15p12-
|-15b17b15-15b17b15-15-12---------------------------
|---------------------------------------------------
|---------------------------------------------------
|---------------------------------------------------
|---------------------------------------------------

|-19p15p12-------------------------------------------------
|----------15p14p12-12h15-15p12----------------------------
|-------------------------------h14-14-12-14-14b16b14-12---
|----------------------------------------------------------
|----------------------------------------------------------
|----------------------------------------------------------

|----------------------------------------------------------
|----------------------------------------------------------
|-14b16b14-12h14p12-12-------------------------------------
|----------------------h14-14p12-----12--------------------
|--------------------------------h14-----14p12-12-----12h14
|-------------------------------------------------h15------

|----------------------------------
|-------------------------------12-
|-----------12------------------12-
|-12--12h14----14-12--14-12--14-12-
|----------------------------------
|----------------------------------

THEN BACK TO THE:
E-|----------------------------------------|
B-|---------------------------7------------|
G-|-9999999999999999-77777777-7-7-9--------|
D-|-9999999999999999-77777777-5-7-9--------|
A-|-7777777777777777-55555555---5-7--------|
E-|----------------------------------------|

E-|-------------------------------------------|
B-|------------------------------7------------|
G-|-999999999999----7h9-77777777-7-7-9--------|
D-|-999999999999-7h9----77777777-5-7-9--------|
A-|-777777777777--------55555555---5-7--------|
E-|-------------------------------------------|

E-|---------------|
B-|---------------|
G-|-9-9/5-55/7-77-| 
D-|-9-9/5-55/7-77-|                
A-|-7-9/3-33/5-55-|
E-|---------------|
comments
print report bad tab
48 comments total. Showing first comments. show 1 bad comment
+2 reply
AC/DC_Rocks_Ang wrote on November 1 2004, 12:00 am

hey dumbass intro is way wrong

+9 reply
guitarmaniac17 wrote on December 5 2004, 12:00 am

Its ok. try playing the intro like this:
E--------------------------
B--------------------------
G-----------------7h9---7h9
D-7h9-7h9-7h9-7h9----7h9---
A-7---7---7----------------
E--------------------------

I want to post or [tab]
guest
You may want to rate the tab now too:
select rating
Please do not post tabs as comments. Select "correction" instead!