Oops, an error
Loading. Please wait.

Rock N Roll Doctor Bass Tab

version 1
version 1

Whole song

Interactive

822 views 3 this week
no commentswrite comment
1 2 3 4 5
please rate
add to favorites
launch autoscroll
font size
0
reset
guitar tuner
Tab Pro tools
  • play this tab
  • loop segment
  • change instrument
  • show fretboard
  • metronome
×
Best way to learn
"Rock N Roll Doctor"
Autoscroll
slow
fast
+/-
esc
set tempo
stop
Contributor
Difficulty
intermediate
Rock 'n Roll Doctor Bass Tab
Black Sabbath
Geezer Butler

0:00
G|----------------------------------------------------------------------|
D|------------------------------------2-2-2-2-2-------------------------|
A|-/7-7-7-7-7\2-2-2-2-2-2-2-0-2-2-2-2-----------2-2-2-2-2-2-2-0-2-2-2-2-|
E|----------------------------------------------------------------------|

G|-----------------------------------------------------------------|
D|4-4-4-4-4-------------------------4-4-4-4-4----------------------|
A|----------4-4-4-4-4-4-4-2-4-4-4-4-----------4-4-4-4-4-4-4-2-4-4-4|
E|-----------------------------------------------------------------|


G|-----------------------------------------------------------------|
D|--2--------4---------2------2~-----------------------------------|
A|4-----2---------4-------2----------------------------------------|
E|-----------------------------------------------------------------|

0:23					       |			x4  |
G|---------------------------------------------|------2---------------------|
D|---------------------------------2-4-2---2---|----2-----------2-4-2---2---|
A|0-0--0--0-0--0--0-0--0--0-0--0-2-------4---0-|0-2-------0-0-2-------4---0-|
E|---------------------------------------------|----------------------------|

0:46
G|------------------2-4--2---2---------------4-2--------------|
D|--------------2-4--------4---------------------4-2----------|
A|2--2-2-0-2--2----------------2--2-2-0-2--2---------4-2-0-2--|
E|------------------------------------------------------------|

G|------------------2-4-2---2--------------------------7-7-7~-|
D|--------------2-4-------4-------------------------5h7-------|
A|2--2-2-0-2--2---------------2--2-2-0-2--2--2-2--5-----------|
E|------------------------------------------------------------|

1:03					       |			x4  |
G|---------------------------------------------|------2---------------------|
D|---------------------------------2-4-2---2---|----2-----------2-4-2---2---|
A|0-0--0--0-0--0--0-0--0--0-0--0-2-------4---0-|0-2-------0-0-2-------4---0-|
E|---------------------------------------------|----------------------------|

1:26
G|------------------2-4--2---2---------------4-2--------------|
D|--------------2-4--------4---------------------4-2----------|
A|2--2-2-0-2--2----------------2--2-2-0-2--2---------4-2-0-2--|
E|------------------------------------------------------------|

G|------------------2-4-2---2--------------------------7-7-7~-|
D|--------------2-4-------4-------------------------5h7-------|
A|2--2-2-0-2--2---------------2--2-2-0-2--2--2-2--5-----------|
E|------------------------------------------------------------|

G|------------------2-4-2---2---------------------------7-7-7~-|
D|--------------2-4-------4-------------------------5h7--------|
A|2--2-2-0-2--2---------------2--2-2-0-2--2--2-2--5------------|
E|-------------------------------------------------------------|

1:43
G|7-7-7-7-7-7-7-7-7-7-7-7-7-7-7-7-7-7-7-7-9-7-7-7-7-7-7-7----------|
D|--------------------------------------------------------11-9-----|
A|-------------------------------------------------------------9-7-|
E|-----------------------------------------------------------------|

G|7-7-7-7-7-7-7-7-7-7-7-7-7-7-7-7-7-7-7-7-9-7-7-7-7-7-7-7---------------|
D|--------------------------------------------------------11-9----------|
A|-------------------------------------------------------------9-7------|
E|----------------------------------------------------------------------|

1:58
G|----------------------0~-----------------------------------------|
D|-----------------------------------------------------------------|
A|-3--2--0~-------3--2---------------------------------------------|
E|-----------------------------------------------------------------|

2:08                                           |                         X4 |
G|---------------------------------------------|------2---------------------|
D|---------------------------------2-4-2---2---|----2-----------2-4-2---2---|
A|0-0--0--0-0--0--0-0--0--0-0--0-2-------4---0-|0-2-------0-0-2-------4---0-|
E|---------------------------------------------|----------------------------|

2:31
G|------------------2-4--2---2---------------6-4-2------------|
D|--------------2-4--------4-----------------------4-2--------|
A|2--2-2-0-2--2----------------2--2-2-0-2--2-----------4-2-4--|
E|------------------------------------------------------------|


G|------------------2-4-2---2---------------------------7-7-7~----|
D|--------------2-4-------4-------------------------5h7-----------|
A|2--2-2-0-2--2---------------2--2-2-0-2--2--2-2--5---------------|
E|----------------------------------------------------------------|

2:47
G|------------------------------------------------------|
D|------------4------------------------4---2------------|
A|-0~-------2---2-4-2-0-2--0~-0-0--0-----4---2-0-2--0~--|
E|------------------------------------------------------|

G|--------------------------------------------------------------------|
D|---------4-------------------------------4--------------------------|
A|0-0--0-2---2-4-2-0-2--0~--0-0--0-2-0-2-0---4-2-0~-------------------|
E|--------------------------------------------------------------------|

G|--------------------------------------------------------|
D|--------------4------------------------4---2------------|
A|-0~--0-0--0-2---2-4-2-0-2--0~-0-0--0-----4---2-0-2--0~--|
E|--------------------------------------------------------|

G|---------------------------------------------------------------------|
D|---------4-----------------------------------------------------------|
A|0-0--0-2---2-4-2-0-2--0~--4-0-2-0---0~--------------0----------------|
E|---------------------------------------------------------------------|

Great song, have fun... I hope I got this right.  First tab.
comments
We did not receive enough feedback on this tab! Please rate:
print report bad tab
1 2 3 4 5
I want to post or [tab]
guest
You may want to rate the tab now too:
select rating
Please do not post tabs as comments. Select "correction" instead!