Oops, an error
Loading. Please wait.

Sabbra Cadabra Tab

version 4
version 4

Whole song

Interactive

1,436 views 6 this week
no commentswrite comment
1 2 3 4 5
please rate
add to favorites
launch autoscroll
font size
0
reset
how to read this tab
guitar tuner
Autoscroll
slow
fast
+/-
esc
set tempo
stop
Help us to improve Ultimate-Guitar.com Take our survey!
×
Author
Tune one and a half step down: C# F# B E G# C

Intro

|-----------------|-----------------|--------------------|--------------------|
|--------8--------|--------8--------|--------------------|--------------------|
|----------9-9-9--|----------9-9-9--|-------7------------|-------7------------|
|--7h8h9----------|--7h8h9----------|-7h8h9---9/7-5------|-7h8h9---9/7-5------|
|-----------------|-----------------|---------------7-7--|---------------7-7--|
|-----------------|-----------------|--------------------|--------------------|

The lead kicks in

|-----------|----------------|------------|---------------|
|-----------|----------------|-----8------|-------8-------|
|-----------|----------------|-------9-9--|-9-7-9----9-7--|
|---5-7b9---|-9r7-5-7--5-7-5-|-7/9--------|---------------|
|-7---------|----------------|------------|---------------|
|-----------|----------------|------------|---------------|

|-------------|--------------------|-----------------|--------------|
|-------------|--------------------|-----------------|--------------|
|-----7-------|--------------------|----12-9----12-9-|--------------|
|-7/9---9/7-5-|---5-7b9--9r7-5-7-5-|-/9------/9------|-9/7-5-7-7--5-|
|-------------|-7------------------|-----------------|--------------|
|-------------|--------------------|-----------------|--------------|

Change to the main riff...

|-----------------|---------------------|
|-----------------|---------------------|
|-7-9-9---7-9-9---|-7-6-7-6-7-8-9-9-9---|
|-7-9-9---7-9-9---|-7-6-7-6-7-8-9-9-9---|
|-5-7-7---5-7-7---|-5-4-5-4-5-6-7-7-7---|
|-----------------|---------------------|

... while the lead goes

|-10-12-12--10-12-12-|--------------------------------------------|
|--------------------|-12b14-12b14-12b14-12b14r12-10-10b12r10p8---|
|--------------------|------------------------------------------9-|
|--------------------|--------------------------------------------|
|--------------------|--------------------------------------------|
|--------------------|--------------------------------------------|

And then the verses, which are basically

|-----------------|---------------------|
|-----------------|---------------------|
|-7-9-9---7-9-9---|-7-7-7-7-7-7-9-9-9---|
|-7-9-9---7-9-9---|-7-7-7-7-7-7-9-9-9---|
|-5-7-7---5-7-7---|-5-5-5-5-5-5-7-7-7---|
|-----------------|---------------------|

|-----------|-----------|
|-----------|-----------|
|-----------|-----------|
|-7---------|-9---------|
|-7---------|-9---------|
|-5---------|-7---------|

Finally

|---0-----3-----0-----3-----------|
|-----0-----0-----0-----0---------|
|---------------------------------|
|-2-----2-----2-----2-----2-0-1-2-|
|---------------------------------|
|---------------------------------|

                                                     Repeat this as many times as needed
|------------|------------|------------|------------|--------------------------------|
|------------|------------|------------|------------|--------------------------------|
|-5----------|-4----------|-5----------|-4----------|--------------------------------|
|-5----------|-4----------|-5----------|-4----------|-2--2-2---x-x-x-7-7-7--7-7\-----|
|-3----------|-2----------|-3----------|-2----------|-2--2-2---x-x-x-7-7-7--7-7\-----|
|------------|------------|------------|------------|-0--0-0---x-x-x-5-5-5--5-5\-----|
Suggest correction
What's this?
You can suggest a correction to this tab. Community and Mods will review your correction and vote to approve or reject it.
comments
We did not receive enough feedback on this tab! Please rate:
print report bad tab
1 2 3 4 5
guest
You may want to rate the tab now too:
select rating
Please do not post tabs as comments. Select "correction" instead!