Oops, an error
Loading. Please wait.

Shadow Of The Wind Tab

3,990 views 6 this week
no commentswrite comment
1 2 3 4 5
accurate
x 3
add to favorites
launch autoscroll
font size
0
reset
how to read this tab
guitar tuner
Tab Pro tools
  • play this tab
  • loop segment
  • change instrument
  • show fretboard
  • metronome
×
Best way to learn
"Shadow Of The Wind"
Autoscroll
slow
fast
+/-
esc
set tempo
stop
Contributor
Difficulty
Tuning
intermediate
D G C F A D
Note Tune down one whole step


D|-----------------------|--------------------|----------------------|----------------------------|
A|-----------------------|--------------------|----------------------|----------------------------|
F|-----------------------|--------------------|----------------------|----------------------------|
E|-2---------10---9------|-6---9---5---2/-14--|--2-----10---12---7---|-9---5---2-------14/-15\-14-|
B|-2---------10---9------|-6---9---5---2/-14--|--2-----10---12---7---|-9---5---2-------14/-15\-14-|
D|-0---------8----7------|-4---7---3---0/-12--|--0-----8----10---5---|-7---3---0--sl---12/-13\-12-|

|-----------------------|-------------------|----------------------|--------------------------|
|-----------------------|-------------------|----------------------|--------------------------|
|-----------------------|-------------------|----------------------|--------------------------|
|-2---------10---9------|-6---9---5---2/-14-|--2-----10---12---7---|-9---5---2----------------|
|-2---------10---9------|-6---9---5---2/-14-|--2-----10---12---7---|-9---5b---2---------------|
|-0---------8----7------|-4---7---3---0/-12-|--0-----8----10---5---|-7---3b---0---------------|


Vs riff
|-----------------------------------------------------------------------|---------------------------|
|-------------------|-----------------------------|---------------------|---------------------------|
|-------------------|--------------------5-/-7----|---------------------|------------------5-/-7----|
|-2---4-/5-\-4---2--|-2---2--4-/-5-\-4---5-/-7----|--2--4-/-5-\--4---2--|-2--2--4-/-5-\-4--5-/-7----|
|-2---4-/5-\-4---2--|-2---2--4-/-5-\-4---3-/-5----|--2--4-/-5-\--4---2--|-2--2--4-/-5-\-4--3-/-5----|
|-0---2-/3-\-2---0--|-0---0--2-/-3-\-2------------|--0--2-/-3-\--2---0--|-0--0--2-/-3-\-2-----------|

 Oh it's night again                                And the dark just killed the sun
|-----------------------------------------------------------------------|---------------------------|
|-------------------|-----------------------------|---------------------|---------------------------|
|-------------------|--------------------5-/-7----|---------------------|------------------5-/-7----|
|-2---4-/5-\-4---2--|-2---2--4-/-5-\-4---5-/-7----|--2--4-/-5-\--4---2--|-2--2--4-/-5-\-4--5-/-7----|
|-2---4-/5-\-4---2--|-2---2--4-/-5-\-4---3-/-5----|--2--4-/-5-\--4---2--|-2--2--4-/-5-\-4--3-/-5----|
|-0---2-/3-\-2---0--|-0---0--2-/-3-\-2------------|--0--2-/-3-\--2---0--|-0--0--2-/-3-\-2-----------|

If the light must end                               You've got time to run away

|-----------------------------------------------------------------------|---------------------------|
|-------------------|-----------------------------|---------------------|---------------------------|
|-------------------|--------------------5-/-7----|---------------------|------------------5-/-7----|
|-2---4-/5-\-4---2--|-2---2--4-/-5-\-4---5-/-7----|--2--4-/-5-\--4---2--|-2--2--4-/-5-\-4--5-/-7----|
|-2---4-/5-\-4---2--|-2---2--4-/-5-\-4---3-/-5----|--2--4-/-5-\--4---2--|-2--2--4-/-5-\-4--3-/-5----|
|-0---2-/3-\-2---0--|-0---0--2-/-3-\-2------------|--0--2-/-3-\--2---0--|-0--0--2-/-3-\-2-----------|

There's a door to dreams                            And it always lets you in
|-----------------------------------------------------------------------|---------------------------|
|-------------------|-----------------------------|---------------------|---------------------------|
|-------------------|--------------------5-/-7----|---------------------|------------------5-/-7----|
|-2---4-/5-\-4---2--|-2---2--4-/-5-\-4---5-/-7----|--2--4-/-5-\--4---2--|-2--2--4-/-5-\-4--5-/-7----|
|-2---4-/5-\-4---2--|-2---2--4-/-5-\-4---3-/-5----|--2--4-/-5-\--4---2--|-2--2--4-/-5-\-4--3-/-5----|
|-0---2-/3-\-2---0--|-0---0--2-/-3-\-2------------|--0--2-/-3-\--2---0--|-0--0--2-/-3-\-2-----------|
 
But with a silent scream                             All the nightmares must begin

Chorus
|-----------------------------------|--------------------------------------------------|
|-----------------------------------|--------------------------------------------------|
|--7--------------------------------|--5-----------------------------------------------|
|--7--------------------------------|--5-----------------------------------------------|
|--5--------------------------------|--3-----------------------------------------------|
|-----------------------------------|--------------------------------------------------|
Still you chase what you can't see     Like death and pain and sin

|-----------------------|-------------------|----------------------|--------------------------|
|-----------------------|-------------------|----------------------|--------------------------|
|-----------------------|-------------------|----------------------|--------------------------|
|-2---------10---9------|-6---9---5---2-----|--2-----10---12---7---|-9---5----2---------------|
|-2---------10---9------|-6---9---5---2-----|--2-----10---12---7---|-9---5b---2---------------|
|-0---------8----7------|-4---7---3---0-----|--0-----8----10---5---|-7---3b---0---------------|

And the Shadow of The Wind                  The Shadow of The Wind
 
|-----------------------------------------------------------------------|---------------------------|
|-------------------|-----------------------------|---------------------|---------------------------|
|-------------------|--------------------5-/-7----|---------------------|------------------5-/-7----|
|-2---4-/5-\-4---2--|-2---2--4-/-5-\-4---5-/-7----|--2--4-/-5-\--4---2--|-2--2--4-/-5-\-4--5-/-7----|
|-2---4-/5-\-4---2--|-2---2--4-/-5-\-4---3-/-5----|--2--4-/-5-\--4---2--|-2--2--4-/-5-\-4--3-/-5----|
|-0---2-/3-\-2---0--|-0---0--2-/-3-\-2------------|--0--2-/-3-\--2---0--|-0--0--2-/-3-\-2-----------|

You'll remember me                                  I could make you disappear

|-----------------------------------------------------------------------|---------------------------|
|-------------------|-----------------------------|---------------------|---------------------------|
|-------------------|--------------------5-/-7----|---------------------|------------------5-/-7----|
|-2---4-/5-\-4---2--|-2---2--4-/-5-\-4---5-/-7----|--2--4-/-5-\--4---2--|-2--2--4-/-5-\-4--5-/-7----|
|-2---4-/5-\-4---2--|-2---2--4-/-5-\-4---3-/-5----|--2--4-/-5-\--4---2--|-2--2--4-/-5-\-4--3-/-5----|
|-0---2-/3-\-2---0--|-0---0--2-/-3-\-2------------|--0--2-/-3-\--2---0--|-0--0--2-/-3-\-2-----------|

Be where you want to be                             Just as long as it's not here


|-----------------------------------------------------------------------|---------------------------|
|-------------------|-----------------------------|---------------------|---------------------------|
|-------------------|--------------------5-/-7----|---------------------|------------------5-/-7----|
|-2---4-/5-\-4---2--|-2---2--4-/-5-\-4---5-/-7----|--2--4-/-5-\--4---2--|-2--2--4-/-5-\-4--5-/-7----|
|-2---4-/5-\-4---2--|-2---2--4-/-5-\-4---3-/-5----|--2--4-/-5-\--4---2--|-2--2--4-/-5-\-4--3-/-5----|
|-0---2-/3-\-2---0--|-0---0--2-/-3-\-2------------|--0--2-/-3-\--2---0--|-0--0--2-/-3-\-2-----------|

Well I'm back and stronger                         And the first one's always free
|-----------------------------------------------------------------------|---------------------------|
|-------------------|-----------------------------|---------------------|---------------------------|
|-------------------|--------------------5-/-7----|---------------------|------------------5-/-7----|
|-2---4-/5-\-4---2--|-2---2--4-/-5-\-4---5-/-7----|--2--4-/-5-\--4---2--|-2--2--4-/-5-\-4--5-/-7----|
|-2---4-/5-\-4---2--|-2---2--4-/-5-\-4---3-/-5----|--2--4-/-5-\--4---2--|-2--2--4-/-5-\-4--3-/-5----|
|-0---2-/3-\-2---0--|-0---0--2-/-3-\-2------------|--0--2-/-3-\--2---0--|-0--0--2-/-3-\-2-----------|

And it lasts much longer                           You can bet your sanity

Chorus
|-----------------------------------|----------------------------------------------|
|-----------------------------------|----------------------------------------------|
|--7--------------------------------|--5-------------------------------------------|
|--7--------------------------------|--5-------------------------------------------|
|--5--------------------------------|--3-------------------------------------------|
|-----------------------------------|----------------------------------------------|
Never more the victim cries           As I slip beneath the skin


|-----------------------|-------------------|----------------------|--------------------------|
|-----------------------|-------------------|----------------------|--------------------------|
|-----------------------|-------------------|----------------------|--------------------------|
|-2---------10---9------|-6---9---5---2-----|--2-----10---12---7---|-9---5----2---------------|
|-2---------10---9------|-6---9---5---2-----|--2-----10---12---7---|-9---5b---2---------------|
|-0---------8----7------|-4---7---3---0-----|--0-----8----10---5---|-7---3b---0---------------|

And the Shadow of The Wind                  The Shadow of The Wind


Solo
|---------------------7b~~------------------------------------------------------------|
|--------7-h-8-h-10-------10~~-p-8--7---P.H-------------------------------------------|
|---9~~~~--------------------------------9~~--7--------------------------7--9--10--12-|
|------------------------------------------------9--7---------------7--9--------------|
|-----------------------------------------------------7--9--7~~~ 9--------------------|
|-------------------------------------------------------------------------------------|


|-------12--15b-12--------15 17b-r-15-------------------------------------------------|
|--15b-------------15--17-------------17--15------------------------------------------|
|--------------------------------------------17--14--------------------------19--17---|
|----------------------------------------------------17--14-----------19--17----------|
|-----------------------------------------------------------17--15-17-----------------|
|-------------------------------------------------------------------------------------|


|----------17-------------------------------------------------------------------------|
|-17---20-----20---17-------------20--17------20------17--20--------20b--17b-20b--17b-|
|----------------------19-17-19----------19b~~-----19b------- 19--17------------------|
|-------------------------------------------------------------------------------------|
|-------------------------------------------------------------------------------------|
|-------------------------------------------------------------------------------------|

|-17--20b--17----17---21b~~~---------------------------------------------------------|
|-------------20---------------------------------------------------------------------|
|-------------------------------------------------------------------------------------|
|-------------------------------------------------------------------------------------|
|-------------------------------------------------------------------------------------|
|-------------------------------------------------------------------------------------|

|-----------------------|-------------------|----------------------|--------------------------|
|-----------------------|-------------------|----------------------|--------------------------|
|-----------------------|-------------------|----------------------|--------------------------|
|-2---------10---9------|-6---9---5---2/-14-|--2-----10---12---7---|-9---5----2---------------|
|-2---------10---9------|-6---9---5---2/-14-|--2-----10---12---7---|-9---5b---2---------------|
|-0---------8----7------|-4---7---3---0/-12-|--0-----8----10---5---|-7---3b---0---------------|


|--0-------------------|--------------------|------------------|--------------------|
|--0-------------------|--------------------|------------------|-----3-------3------|
|--0------------0------|--------0-----------|-2-----------0----|---2---2---2---2----|
|--2---------2-----2---|------2---2-------2-|---2-------2---2--|-0-------0----------| 
|--2------2----------2-|----2-------2---0---|-----0---2--------|--------------------|
|--0---0---------------|-0------------------|-------0----------|--------------------|

|--0-------------------|--------------------|------------------|--------------------|
|--0-------------------|--------------------|------------------|-----3-------3------|
|--0------------0------|--------0-----------|-2-----------0----|---2---2---2---2----|
|--2---------2-----2---|------2---2-------2-|---2-------2---2--|-0-------0----------| 
|--2------2----------2-|----2-------2---0---|-----0---2--------|--------------------|
|--0---0---------------|-0------------------|-------0----------|--------------------|



|--0-------------------|--------------------|------------------|--------------------|
|--0-------------------|--------------------|------------------|-----3-------3------|
|--0------------0------|--------0-----------|-2-----------0----|---2---2---2---2----|
|--2---------2-----2---|------2---2-------2-|---2-------2---2--|-0-------0----------| 
|--2------2----------2-|----2-------2---0---|-----0---2--------|--------------------|
|--0---0---------------|-0------------------|-------0----------|--------------------|
   If words had names like red and   green    And   two  for   sympathy

|--0-------------------|--------------------|------------------|--------------------|
|--0-------------------|--------------------|------------------|-----3-------3------|
|--0------------0------|--------0-----------|-2-----------0----|---2---2---2---2----|
|--2---------2-----2---|------2---2-------2-|---2-------2---2--|-0-------0----------| 
|--2------2----------2-|----2-------2---0---|-----0---2--------|--------------------|
|--0---0---------------|-0------------------|-------0----------|--------------------|
                                              
 Black    and   white and  in   between       Then     you'd    be   misery

|--------------------------------------|-------------------------------------------------|
|--------------------------------------|-------------------------------------------------|
|--9-----------------------------------|--5---------------------------5-/--7-/-9---------|
|--9-----------------------------------|--5----------------------------------------------|
|--7-----------------------------------|--3---------------------------3-/--5-/-7---------|
|--------------------------------------|-------------------------------------------------|
  Every day is an inquisition            Who are you? What are you? Why?

|--------------------------------------|-------------------------------------------------|
|--------------------------------------|-------------------------------------------------|
|--9-----------------------------------|--5----------------------------------------------|
|--9-----------------------------------|--5----------------------------------------------|
|--7-----------------------------------|--3----------------------------------------------|
|--------------------------------------|-------------------------------------------------|
I'm alive, I belong, I'll be back        It's a half truth, still a whole lie
|--------------------------------------|-------------------------------------------------|
|--------------------------------------|-------------------------------------------------|
|--9-----------------------------------|--5----------------------------------------------|
|--9-----------------------------------|--5----------------------------------------------|
|--7-----------------------------------|--3----------------------------------------------|
|--------------------------------------|-------------------------------------------------|
In the garden of good and evil           You'll come, but you know
|--------------------------------------|-------------------------------------------------|
|--------------------------------------|-------------------------------------------------|
|--9-----------------------------------|--5----------------------------------------------|
|--9-----------------------------------|--5----------------------------------------------|
|--7-----------------------------------|--3----------------------------------------------|
|--------------------------------------|-------------------------------------------------|
 The spider only spins
|-----------------------|-------------------|----------------------|--------------------------|
|-----------------------|-------------------|----------------------|--------------------------|
|-----------------------|-------------------|----------------------|--------------------------|
|-2---------10---9------|-6---9---5---2/-14-|--2-----10---12---7---|-9---5----2---------------|
|-2---------10---9------|-6---9---5---2/-14-|--2-----10---12---7---|-9---5b---2---------------|
|-0---------8----7------|-4---7---3---0/-12-|--0-----8----10---5---|-7---3b---0---------------|

And the Shadow of The Wind                  The Shadow of The Wind
|-----------------------|-------------------|----------------------|--------------------------|
|-----------------------|-------------------|----------------------|--------------------------|
|-----------------------|-------------------|----------------------|--------------------------|
|-2---------10---9------|-6---9---5---2-----|--2-----10---12---7---|-9---5----2---------------|
|-2---------10---9------|-6---9---5---2-----|--2-----10---12---7---|-9---5b---2---------------|
|-0---------8----7------|-4---7---3---0-----|--0-----8----10---5---|-7---3b---0---------------|

And the Shadow of The Wind                  The Shadow of The Wind
|-----------------------|-------------------|----------------------|--------------------------|
|-----------------------|-------------------|----------------------|--------------------------|
|-----------------------|-------------------|----------------------|--------------------------|
|-2---------10---9------|-6---9---5---2-----|--2-----10---12---7---|-9---5----2---------------|
|-2---------10---9------|-6---9---5---2-----|--2-----10---12---7---|-9---5b---2---------------|
|-0---------8----7------|-4---7---3---0-----|--0-----8----10---5---|-7---3b---0---------------|

|-----------------------|-------------------|----------------------|--------------------------|
|-----------------------|-------------------|----------------------|--------------------------|
|-----------------------|-------------------|----------------------|--------------------------|
|-2---------10---9------|-6---9---5---2-----|--2-----10---12---7---|-9---5----2---------------|
|-2---------10---9------|-6---9---5---2-----|--2-----10---12---7---|-9---5b---2---------------|
|-0---------8----7------|-4---7---3---0-----|--0-----8----10---5---|-7---3b---0---------------|
comments
We did not receive enough feedback on this tab! Please rate:
print report bad tab
1 2 3 4 5
I want to post or [tab]
guest
You may want to rate the tab now too:
select rating
Please do not post tabs as comments. Select "correction" instead!