Oops, an error
Loading. Please wait.

Shes Gone tab

version 2
version 2

Whole song

Interactive

774 views 12 this week
no commentswrite comment
1 2 3 4 5
x 3
add to favorites
×
Save as Personal and add changes to this tab that will be seen only by you. Learn more ›
×
You can save this tab as Personal to edit and correct it or add notes. All changes will be seen only by you. Learn more »
launch autoscroll
font size
0
reset
how to read this tab
guitar tuner
edit
Autoscroll
slow
fast
+/-
esc
set tempo
stop
Author
Difficulty
She's Gone by Black Sabbath

Tabs by sidguptajhs@gmail.com

Standard Tuning. No Capo.

Verse:

I've been gone a long long time - waiting for you,   I din't want to see you go, oh, no, no

|--------0-------0---------0--------0----------0-------0-------0-------0-|
|------0---0-------------0---0---------------0---0-----------0---0-------|
|----0-------0---------0-------0-----------8-------8-------8-------8-----|      x2
|--9-----------9-----9-----------9-------9-----------9---9-----------9---|     
|------------------------------------------------------------------------|
|------------------------------------------------------------------------|


And now it's hurting so much, what can I do?

|---------0---------0---------0---------0---------0---------0---------0---0----|
|-------0---0---------------0---0---------------0---0---------------0---0------|
|----11-------11---------11-------11---------12-------12---------12---12-------|
|-12-------------12---12-------------12---11-------------11---11-------11------|
|------------------------------------------------------------------------------|
|------------------------------------------------------------------------------|


I wanted you to be my wife

|--------0--------0-------0-------0-------0-------0-------0-------0-|
|------0---0------------0---0-----------0---0-----------0---0-------|
|----9-------9--------7-------7-------8-------8-------8-------8-----|
|-10-----------10---8-----------8---9-----------9---9-----------9---|
|-------------------------------------------------------------------|
|-------------------------------------------------------------------|

The days are passing slowly, since you've gone
Your memories are all I have, yes I have
I sit here waiting but you'll never show
Without you I can't carry on, ooh my baby



Interlude:

|-------0-------0-------0-------0-------2-------2-------2-------2-|
|-----0---0-----------0---0-----------0---0-----------0---0-------|
|---4-------4-------4-------4-------4-------4-------4-------4-----|  x2
|-2-----------2---2-----------2---0-----------0---0-----------0---|   
|-----------------------------------------------------------------|
|-----------------------------------------------------------------|


|-------5-----7---------5-----7---------5-----7---------5-----7----|
|-----5---5-----5-----5---5-----5-----5---5-----5-----5---5-----5--|
|---5-------5-------5-------5-------5-------5-------5-------5------|
|-7---------------6---------------5---------------4----------------|
|------------------------------------------------------------------|
|------------------------------------------------------------------|


|-------0-------0-------0-------0-------0-------0-------0-------0--|
|-----0---0-----------0---0-----------0---0-----------0---0--------|
|---4-------4-------6-------6-------8-------8-------8-------8------|
|-5-----------5---7-----------7---9-----------9---9-----------9----|
|------------------------------------------------------------------|
|------------------------------------------------------------------|


You said you'd always love me, all of my life
And then you said your last goodbye, yeah, goodbye
Why the sudden change, why all the lies?
I should have seen it in your eyes

The endless hours of heartache, waiting for you
My summer love has turned to rain, all the pain
The silent emptiness of one sided love
My life means nothing now you're gone, ooh my baby

Suggest correction
Creating personal tab
Creating personal tab
You can edit any tab online and save it as your Personal.

You can edit, replace or remove any tab part or add personal notes – all changes will be seen only by you.

Personal tabs can be accessed anytime from any device, even offline.
Learn more »
Give kudos to tab author, rate the tab!
1 2 3 4 5
comments
print report bad tab
guest
You may want to rate the tab now too:
select rating
Wanna post a correction for this tab? Suggest correction