Oops, an error
Loading. Please wait.

Slipping Away bass

version 1
version 1

Whole song

Interactive

2,051 views 6 this week
no commentswrite comment
1 2 3 4 5
1 last vote to show rating
add to favorites
×
Save as Personal and add changes to this tab that will be seen only by you. Learn more ›
×
You can save this tab as Personal to edit and correct it or add notes. All changes will be seen only by you. Learn more »
launch autoscroll
font size
0
reset
guitar tuner
edit
Autoscroll
slow
fast
+/-
esc
set tempo
stop
Black Sabbath
Slipping Away
bass tab

tune down
half step

  0.00         intro                              t:170            4:4
|----------------|----------------|----------------|----------------|
|.-.---.---------|--.-.---.-.-----|.-.---.-----.---|----.-.---------|
|----.-----------|------.-----.-.-|----.-----.-----|--------.-------|
|----------------|----------------|----------------|----------------|

|----------------|----------------|----------------|----------------|
|----------------|----------------|----------------|--0-5-0-3-0---0-|
|----------------|--3-2-0-3-2-0---|------------5----------------3---|
|5-5-3-5-\\------|--------------3-|5-5-3-5-\\------|----------------|

|----------------|----------------|----------------|----5---7-5-----|
|----------------|----------------|----------------|--7---7-----7-6-|
|----------------|--3-2-0-3-2-0---|------------5--------------------|
|5-5-3-5-\\------|--------------3-|5-5-3-5-\\------|----------------|

|----------------|----------------|----------------|-----^---^------|
|----------------|----------------|----------------|--0-3-0-5-0--^--|
|----------------|--3-2-0-3-2-0---|------------5----------------5-0-|
|5-5-3-5-\\------|--------------3-|5-5-3-5-\\------|----------------|

  0.23         verse 1
|----------------|----------------|----------------|----------------|
|----------------|----------------|----------------|----------------|
|----------------|--3-2-0-3-2-0---|------------5------0-3-0-3-2-----|
|5-5-3-5-\\------|--------------3-|5-5-3-5-=-------|------------3---|

|----------------|----------------|----------------|----5---7-5-----|
|----------------|----------------|----------------|--7---7-----7-6-|
|----------------|--3-2-0-3-2-0---|------------5--------------------|
|5-5-3-5-\\------|--------------3-|5-5-3-5-=-------|----------------|

|----------------|----------------|----------------|----------------|
|----------------|----------------|----------------|--7-5---7-5-----|
|----------------|--3-2-0-3-2-0---|------------5----------7-----7-6-|
|5-5-3-5-\\------|--------------3-|5-5-3-5-=-------|----------------|

|----------------|----------------|----------------|----------------|
|----------------|----------------|----------------|----------------|
|----------------|--3-2-0-3-2-0---|----------0-5---|5-5---5-5-5-5-5-|
|5-5-3-5-\\------|--------------3-|5-5-3-5-=-------|----------------|

  0.46         chorus 1
|----------------|----------------|----------------|----------------|
|----------------|----------------|----------------|----------------|
|5-3------------------------------|3-1------------------------------|
|----------------|----------------|----------------|----------------|

|----------------|----------------|----------------|----5^7-7-7-5---|
|----------------|----------------|----------------|--7-----------7-|
|----------------|--3-2-0-3-2-0---|----------0-5--------------------|
|5-5-3-5-\\------|--------------3-|5-5-3-5-=-------|----------------|

|----------------|----------------|----------------|----------------|
|----------------|----------------|----------------|---^-----^------|
|----------------|--3-2-0-3-2-0---|----------0-5------5-4-0-3-2-----|
|5-5-3-5-\\------|--------------3-|5-5-3-5-\\------|------------3^--|

  1.04         verse 2
|----------------|----------------|----------------|----------------|
|----------------|----------------|----------------|--7-5---7-5-----|
|----------------|--3-2-0-3-2-0---|------------5----------7-----7-6-|
|5-5-3-5-\\------|--------------3-|5-5-3-5-=-------|----------------|

|----------------|----------------|----------------|----5---7-5-----|
|----------------|----------------|----------------|--7---7-----7-6-|
|----------------|--3-2-0-3-2-0---|------------5--------------------|
|5-5-3-5-\\------|--------------3-|5-5-3-5-\\------|----------------|

|----------------|----------------|----------------|----------------|
|----------------|----------------|----------------|--7-5---7-5-----|
|----------------|--3-2-0-3-2-0---|------------5----------7-----7-6-|
|5-5-3-5-\\------|--------------3-|5-5-3-5-=-------|----------------|

|----------------|----------------|----------------|----------------|
|----------------|----------------|----------------|----------------|
|----------------|--3-2-0-3-2-0---|------------5---|5-5-5-5-5-5-5-5-|
|5-5-3-5-\\------|--------------3-|5-5-3-5-=-------|----------------|

  1.27         chorus 2
|----------------|----------------|----------------|----------------|
|----------------|----------------|----------------|----------------|
|------------5--------------------|------------5------0-----0-------|
|3---3-5---------|----------------|3---3-5---------|----------------|

|----------------|----------------|----------------|----------------|
|----------------|----------------|----------------|----------------|
|------------5--------------------|------------5------0-----0-------|
|3---3-5---------|----------------|3---3-5---------|----------------|

|----------------|----------------|----------------|----------------|
|----------------|----------------|----------------|----------------|
|5-3------------------------------|3-1------------------------------|
|----------------|----------------|----------------|----------------|




    1.45         solo 1
|----------------|----------------|----------------|--------5-7-5---|
|----------------|----------------|----------------|----5-7-------7-|
|------5---------|----------------|------5-----0---|--7-------------|
|5---5-------5--\\\---------------|3---3-----------|----------------|

|----------------|----------------|----------------|----------------|
|----------------|----------------|----------------|--7-5-----------|
|------5---------|----------------|------5-----0---|------7-6-5-3---|
|5---5-------5--\\\---------------|3---3-----------|----------------|

|----------------|----------------|----------------|--------5-7-5---|
|----------------|----------------|----------------|----5-7-------7-|
|------5---------|----------------|------5---5-0---|--7-------------|
|5---5-------5--\\\---------------|3---3-----------|----------------|

|----------------|----------------|----------------|--------------..|`---.-----------|
|----------------|----------------|----------------|----------------|--------.-.-.---|
|------5---------|----------------|------5-----3--------------------|----------------|
|5---5-------5--\\\---------------|3---3-----------|----------------|----------------|

  2.11         solo 2
|----------------|----------------|----------------|----5---7-5-----|
|----------------|----------------|----------------|--7---7-----7-6-|
|----------------|----------------|------------5--------------------|
|5-5-3-5-=-------|----------------|5-5-3-5-=-------|----------------|

|----------------|-----------/----|7-5-------------|----------------|
|----------------|------0-3-5-7---|----7-0-=-0-----|----------------|
|5^^---5^^-------|--0-3-----------|------------5------0-5-0-3-0-----|
|------------5^^------------------|----------------|------------3^--|

|----------------|----------------|----------------|----------------|
|----------------|----------------|----------------|----10--1210--0-|
|---^------------|----------------|-------------------12--12----12--|
|5---3-5-=-------|----------------|5-5-3-5-=---X-X-|----------------|

|--1412----1412--|--^-------------|----------------|----------------|
|12----14-=----14|101210----------|------------12^^|--1412--1412----|
|----------------|--------1210----|------14^^------|------14----14\-|
|----------------|------------12-------------------|----------------|

  2.34         verse 3
|----------------|----------------|----------------|----5---7-5-----|
|----------------|----------------|----------------|--7---7-----7-6-|
|0-0-------------|--3-2-0-3-2-0---|------------5--------------------|
|----3-5-\\------|--------------3-|5-5-3-5-\\------|----------------|

|----------------|----------------|----------------|----------------|
|----------------|----------------|----------------|-----^---^------|
|----------------|--3-2-0-3-2-0---|----------0-5------0-5-0-3-0-----|
|5-5-3-5-\\------|--------------3-|5-5-3-5-=-------|------------3^--|

|----------------|----------------|----------------|----7-7-7-7-5---|
|----------------|----------------|----------------|--7-----------7-|
|----------------|--3-2-0-3-2-0---|------------5--------------------|
|5-5-3-5-\\------|--------------3-|5-5-3-5-=-------|----------------|

|----------------|----------------|----------------|----------------|
|----------------|----------------|----------------|----------------|
|----------------|--3-2-0-3-2-0---|------------5---|5-5-5-5-5-5-5-5-|
|5-5-3-5-\\------|--------------3-|5-5-3-5-=-------|----------------|

  2.58         chorus 3
|----------------|----------------|----------------|----------------|
|----------------|----------------|----------------|----------------|
|------------5--------------------|------------5------0-----0-------|
|3-3-3-5---------|----------------|3---3-5---------|----------------|

|----------------|----------------|----------------|----------------|
|----------------|----------------|----------------|----------------|
|------------5--------------------|------------5------0-----0-------|
|3---3-5---------|----------------|3---3-5---------|----------------|

|----------------|----------------|----------------|----------------|
|----------------|----------------|----------------|----------------|
|5-3------------------------------|3-1------------------------------|
|----------------|----------------|----------------|----------------|

  3.16         outro
|----------------|----------------|----------------|----5---7-5-----|
|----------------|----------------|----------------|--7---7-----7\--|
|----------------|--3-2-0-3-2-0---|----------0-5--------------------|
|5-5-3-5-\\------|--------------3-|5-5-3-5-=-------|----------------|

|----------------|----------------|----------------|----------------|
|----------------|----------------|----------------|--7-5---7-5-----|
|----------------|--3-2-0-3-2-0---|----------0-5----------7-----7-6-|
|5-5-3-5-\\------|--------------3-|5-5-3-5-=-------|----------------|

|----------------|----------------|----------------|----------------|
|----------------|----------------|----------------|----------------|
|----------------|--3-2-0-3-2-0---|------------5------5-4-0-3-2-----|
|5-5-3-5-\\------|--------------3-|5-5-3-5-=-------|------------3---|

|----------------|----------------|----------------|----`---`---`---|`---`---`---`---|
|----------------|----------------|----------------|----------------|----------------|
|----------------|--3-2-0-3-2-0---|------------3-------------------------------------|
|5-5-3-5-\\------|--------------3-|5-5-3-5-=-------|----------------|----------------|

|----------------|
|----------------|
|----------------|
|5-5-3-5-=-------|
  


standard tuning (EADG)

| /  slide up
| \  slide down

| .   incidental note (usually open string)
| ^   pre-struck note (hammer-on, pull-off)
| =   rest

| X   10
| E   11
| T   12
| H   13
| F   14


display in fixed-width font
one space ("-") = 1/16 note

tabbed by
spaceyhippie
dudeman.net/jam

Suggest correction
Creating personal tab
Creating personal tab
You can edit any tab online and save it as your Personal.

You can edit, replace or remove any tab part or add personal notes – all changes will be seen only by you.

Personal tabs can be accessed anytime from any device, even offline.
Learn more »
Give kudos to tab author, rate the tab!
1 2 3 4 5
comments
print report bad tab
guest
You may want to rate the tab now too:
select rating
Wanna post a correction for this tab? Suggest correction