Oops, an error
Loading. Please wait.

Snowblind Tab

version 1
version 1
20,483 views 57 this week
7 commentsread comments
1 2 3 4 5
worth learning
x 17
add to favorites
launch autoscroll
font size
0
reset
how to read this tab
guitar tuner
Autoscroll
slow
fast
+/-
esc
set tempo
stop
Help us to improve Ultimate-Guitar.com Take our survey!
×
Author
-------------------------------------------------------------
                  snowblind - black sabbath
-------------------------------------------------------------

By:DoubleAron

intro:
e|------------------------------------------------------|
B|------------------------------------------------------|
G|---------------------------------7-------------9------|
D|---5----7----9----7----7-------7---7---------9---9----|x2
A|---5----7----9----7----5-----5-------7-----7-------7--|
E|---3----5----7----5----5---5-------------7------------|

verse:1,2,4,6
e|-------------------------------------------------------|
B|-------------------------------------------------------|
G|-------------------------------------------------------|
D|---7-x-7-x-7--xx--55-----------------------------------|x6
A|---7-x-7-x-7--xx--55-----------------------------------|
E|---5-x-5-x-5--xx--33-----------------------------------|

after verses: 1,2,4,5,6
e|-------------------------------------------------------|
B|-------------------------------------------------------|
G|-------------------------------------------------------|
D|---9----7----5----3----4----6--------------------------|x2
A|---9----7----5----3----4----6--------------------------|
E|---7----5----3----1----2----4--------------------------|

e|--------------------------------------------------------|
B|--------------------------------------------------------|
G|---------------------------------7--------------9-------|
D|---5----7----9----7----7-------7---7----------9---9-----|x2
A|---5----7----9----7----5-----5-------5------7-------7---|
E|---3----5----7----5----5---5--------------7-------------|

verse:3
e|-------------------------------------------------------|
B|-------------------------------------------------------|
G|-------9-------------------4-------3-------------------|
D|------9-9-----7-----5-----4-4-----3-3------------------|x5
A|-----9---9---7-----5-----4---4---3---3-----------------|
E|----7-----7-5-----3-----2-----2-1-----1----------------|

1st solo:dunno it

after solo & 4th verse

verse5
e|-------------------------------------------------------|
B|-------------------------------------------------------|
G|-------------------------------------------------------|
D|----55--xx--55--xx--55--xx--333------------------------|x8
A|-------------------------------------------------------|
E|-------------------------------------------------------|

2nd solo:dunno it


What you get and what you see
Things that don't come easily
Feeling happy in my vein
Icicles within my brain
(cocaine)

Something blowing in my head
Winds of ice, it soon will spread
Death would freeze my very soul
Makes me happy, makes me cold

My eyes are blind but I can see
The snowflakes glisten on the tree
The sun no longer sets me free
I feel there's no place freezing me

Let the winter sun shine on
Let me feel the frost of dawn
Fill my dreams with flakes of snow
Soon I'll feel the chilling glow

Don't you think I know what I'm doing
Don't tell me that it's doing me wrong
You're the one that's really a loser
This is where I feel I belong

Crystal world with winter flowers
Turns my day to frozen hours
Lying snowblind in the sun
Will my ice age ever come?
Suggest correction
comments
print report bad tab
7 comments total. Showing first comments.
0 reply
nirvana4lf 142 wrote on May 22 2005, 12:00 am

one of the worst tabs. please dont play guitar if your tonedeaf.

0 reply
kulangot 10 wrote on March 26 2006, 09:14 am

what a tab!dont try to make a tab again dude!why you get the 3 stars?
your tab is defenitely wrong !

0 reply
Severon 10 wrote on May 10 2006, 07:25 pm

way wrong

guest
You may want to rate the tab now too:
select rating
Please do not post tabs as comments. Select "correction" instead!