Oops, an error
Loading. Please wait.

Spiral Architect tab

version 3
version 3

Whole song

Interactive

19,045 views 24 this week
no commentswrite comment
1 2 3 4 5
x 7
add to favorites
×
Save as Personal and add changes to this tab that will be seen only by you. Learn more ›
×
You can save this tab as Personal to edit and correct it or add notes. All changes will be seen only by you. Learn more »
launch autoscroll
font size
0
reset
how to read this tab
guitar tuner
edit
Autoscroll
slow
fast
+/-
esc
set tempo
stop
Author
Unregistered
[Intro]
(Let all notes ring. Play each bar four times)
e|----0---|----0---|----8---|--------------|
B|---6-6--|---8-8--|---6-6--|----0-----0---|
G|--7---7-|--9---9-|--7---7-|---6-6---4-4--|
D|-0------|-0------|-0------|--7---7-5---5-|
A|--------|--------|--------|-0-----0------|
E|--------|--------|--------|--------------|

[Opening Riff] 
(in the begining he plays this (1) then he switches to the riff below (2)
     F#5  B5 (played mostly on the upbeat)
e|-------------------------------------------------------------------|
B|-------------------------------------------------------------------|
G|-------------------------------------------------------------------|
D|----7-7-7-7-7-7-7-7-7-7-7-7----------------------------------------|
A|--7-5-5-5-5-5-5-5-5-5-5-5-5----------------------------------------|
E|--5----------------------------------------------------------------|

     F#5  B Major (played mostly on the upbeat)
e|-------------------------------------------------------------------|
B|----7-7-7-7-7-7-7-7-7-7-7-7----------------------------------------|
G|----7-7-7-7-7-7-7-7-7-7-7-7----------------------------------------|
D|--7-7-7-7-7-7-7-7-7-7-7-7-7----------------------------------------|
A|--5----------------------------------------------------------------|
E|--7----------------------------------------------------------------|

[Bridge]
(When he is playing the opening riff he throughs in this really awesome lick)
e|-------------------------------------------------------------------|
B|-------------------------------------------------------------------|
G|-------------------------------------------------------------------|
D|--7--10-9-7-9-7----7---------------------7-------------------------|
A|----------------10---10-8-10-8-7-8-7-8-7-5-------------------------|
E|-------------------------------------------------------------------|

Then back to the opening riff for a little

Then he plays the Bridge once more, opening the Main Riff

[Main Riff]
     B5   F#5 A5G#5 B5
e|-------------------------------------------------------------------|
B|-------------------------------------------------------------------|
G|-------------------------------------------------------------------|
D|--7-7-7----5-4-7-7-7-7---------------------------------------------|
A|--5-5-57-7-3-2-5-5-5-5---------------------------------------------|
E|-------5-5---------------------------------------------------------|

(Then he throughs in another kind of Bridge Riff, leading back to the Opening Riff.)

[Bridge]
e|-------------------------------------------------------------------|
B|-------------------------------------------------------------------|
G|--7--7-10--10-9--9-8--8-7------------------------------------------|
D|--7--7-10--10-9--9-8--8-7------------------------------------------|
A|--5--5-8---8--7--7-6--6-5------------------------------------------|
E|-------------------------------------------------------------------|

(This could possibly sound better if it was appegiated, depends on what you want. 
i arppegiate it ;))

(After playing these riffs in certain combinations, he plays this really sweet lick that 
possibly be considered the "solo". Here it is. On the record the violin plays it but 
are the notes on the guitar.)

[Solo]
e|-------------------------------------------------------------------|
B|-------------------------------------------------------------------|
G|-------------------------------------------------------------------|
D|----------------------------------------10--9-----10--12--10-12----|
A|------8--10------12--10------8--10--12---------12------------------|
E|--10---------10----------10----------------------------------------|

(This is the trickiest part of the song. he plays the notes as triplets. the best 
i have found to play this is on each triplet do the folowing: pull-off the first two notes and 
slide to the third. do this four all four triplets.)

(2x)
e|-------------------------------------------------------------------|
B|-------------------------------------------------------------------|
G|-------------------------------------------------------------------|
D|--12-10-9-10-9-7-9-7-5-7-5-3-0-------------------------------------|
A|-------------------------------------------------------------------|
E|-------------------------------------------------------------------|

[Opening Riff] 
(in the begining he plays this (1) then he switches to the riff below (2)
     F#5  B5 (played mostly on the upbeat)
e|-------------------------------------------------------------------|
B|-------------------------------------------------------------------|
G|-------------------------------------------------------------------|
D|----7-7-7-7-7-7-7-7-7-7-7-7----------------------------------------|
A|--7-5-5-5-5-5-5-5-5-5-5-5-5----------------------------------------|
E|--5----------------------------------------------------------------|

     F#5  B Major (played mostly on the upbeat)
e|-------------------------------------------------------------------|
B|----7-7-7-7-7-7-7-7-7-7-7-7----------------------------------------|
G|----7-7-7-7-7-7-7-7-7-7-7-7----------------------------------------|
D|--7-7-7-7-7-7-7-7-7-7-7-7-7----------------------------------------|
A|--5----------------------------------------------------------------|
E|--7----------------------------------------------------------------|

            
            
Suggest correction
Creating personal tab
Creating personal tab
You can edit any tab online and save it as your Personal.

You can edit, replace or remove any tab part or add personal notes – all changes will be seen only by you.

Personal tabs can be accessed anytime from any device, even offline.
Learn more »
comments
print report bad tab
guest
Wanna post a correction for this tab? Suggest correction