Oops, an error
Loading. Please wait.

Supernaut Tab

version 1
version 1

Solo

Whole song

Interactive

3,235 views 1 this week
1 commentread comment
1 2 3 4 5
please rate
add to favorites
launch autoscroll
font size
0
reset
how to read this tab
guitar tuner
Tab Pro tools
  • play this tab
  • loop segment
  • change instrument
  • show fretboard
  • metronome
×
Best way to learn
"Supernaut"
Autoscroll
slow
fast
+/-
esc
set tempo
stop
Black Sabbath-Supernaut
Tuning:C# F# B E G# C#      From:DILLON SHIFFLETT
                                                           Trill.
--12b-12b--12h14p12----12h15p12----12h15p12----15p12------|-12h15-|
--15b-15b-----------12----------12----------14-------15p12|-------|
----------------------------------------------------------|-------|
----------------------------------------------------------|-------|
----------------------------------------------------------|-------|
----------------------------------------------------------|-------|
.........................
--12h15-12h15-12h15-12h15|-15b--15b(15)--12h15p12----------12b-12-|
-------------------------|------------------------15b-15b--15b-15-|
-------------------------|----------------------------------------|
-------------------------|----------------------------------------|
-------------------------|----------------------------------------|
-------------------------|----------------------------------------|
                       Trill......................................
-----------------------|------------------------------------------|
--15-0-15--12h15p12----|------------------------------------------|
--------------------14-|12h14p(12)h14----12h14----12h14p(12)h14---|
-----------------------|--------------14--------------------------|
-----------------------|------------------------------------------|
-----------------------|------------------------------------------|
.....................
---------------------|--------------------------------------------|
---------------------|--------------------------------------------|
--12h14p(12)h14-12h14|-14b(14)h(14)-13-14-14b-12h14p12------------|
---------------------|--------------------------------14-12h14p12-|
---------------------|--------------------------------------------|
---------------------|--------------------------------------------|
    Trill...............................
----|-----------------------------------|-------------------------|
----|-----------------------------------|-------------------------|
----|-----------------------------------|-------------------------|
----|-12h14-12h14p(12)h14--12h14p(12)h14|-12----------------------|
--14|-----------------------------------|-----12---10h12--10------|
----|-----------------------------------|--------------------12---|
        Trill........
--------|------------|---------------------------------------12---|
--------|------------|-----------------12b-----------12b--12------|
--------|------------|---------12--12--14b--12h14----14b----------|
--------|------------|-12-14-12--14---------------14--------------|
--------|10h12--12h14|--------------------------------------------|
--10h12-|------------|--------------------------------------------|

---------12b--12b.--(12)--12b.-(12)--12b--12b--12b--12b--12b--12b-|
--15-15b-15b--15b.--(15)--15b.-(15)--15b--15b--15b--15b--15b--15b-|
------------------------------------------------------------------|
------------------------------------------------------------------|
------------------------------------------------------------------|
------------------------------------------------------------------|
Trill.............................................................
|12h15------------------------------------------------------------|
|------15-12h15---------------------------------------------------|
|---------------14-12h14-----------------12h14--12h14p(12)h14-----|
|------------------------14-12h14--12h14----------------------14--|
|-----------------------------------------------------------------|
|-----------------------------------------------------------------|
..............................
------------------------------|-----------------------------------|
------------------------------|-----------------------------------|
-12h14p(12)h14----12h14--12h14|-12----12h14-12---12h14-12h14p12---|
---------------14-------------|----14----------14-----------------|
------------------------------|-----------------------------------|
------------------------------|-----------------------------------|
Trill.......................
|---------------------------|--------------------------------------|
|---------------------------|---------------12b-12b-12b-12-12b-12--|b
|-12h14--12h14--12h14--12h14|14b-14-14b-14--14b-14b-14b-14-14b-14--|b
|---------------------------|--------------------------------------|
|---------------------------|--------------------------------------|
|---------------------------|--------------------------------------|

------------------------------------------------------------------|
--12-15-----12-15-----12-15-----12-15-----12-15-----12-15---------|
---------14b------14b-------14b-------14b-------14b-------14b-----|
------------------------------------------------------------------|
------------------------------------------------------------------|
------------------------------------------------------------------|

------------------------------------------------------------------|
--12-15-----12-15-----12-15-----12-15-----12-15-----12-12----15b--|
--------14b-------14b-------14b-------14b-------14b---------------|
------------------------------------------------------------------|
------------------------------------------------------------------|
------------------------------------------------------------------|

--12---------------------------------15b--15--12h15p12----12------|
-----15p12-----------------------12--------------------15-----15b-|
------------14--14p12-------14b-----------------------------------|
------------------------14----------------------------------------|
------------------------------------------------------------------|
------------------------------------------------------------------|

--12b--12b-------------------------|
--15b--15b--15--12-----------------|
--------------------12h14p12-------|
-----------------------------14----|
-----------------------------------|
-----------------------------------|
comments
We did not receive enough feedback on this tab! Please rate:
print report bad tab
1 2 3 4 5
1 comment total.
0 reply
bLiNK_gREEn wrote on October 27 2005, 09:14 pm

ahha its now 3 stars not 5 :D:D:D:

I want to post or [tab]
guest
You may want to rate the tab now too:
select rating
Please do not post tabs as comments. Select "correction" instead!