Oops, an error
Loading. Please wait.

Supernaut Tab

version 1
version 1

Whole song

Interactive

71,007 views 177 this week
13 commentsread comments
1 2 3 4 5
excellent!
x 23
add to favorites
launch autoscroll
font size
0
reset
how to read this tab
guitar tuner
Autoscroll
slow
fast
+/-
esc
set tempo
stop
Help us to improve Ultimate-Guitar.com Take our survey!
×
Tuning
C# G# E B F# C#
Iommi tuned down to Db for this song, but this tab is written in E


[Riff 1]

e||----------------------------------------------------------------------|
B||*---------------------------------------------------------------------|
G||----------------------------------------------------------------------|
D||----------------------------------------------------------------------|
A||*--/4---4-4p2-----2---4---4~------/4---4---4p2-----2~-----------------|
E||--------------2--------------------------------2------------------2---|

e|----------------------------------------------------------------------||
B|---------------------------------------------------------------------*||
G|----------------------------------------------------------------------||  x2
D|--------------------------/4~-----4p2------4---4---4p2----------------||
A|---/4---4-4p2-----2---4----------------2----------------2------------*||
E|--------------2-------------------------------------------------------||


[Riff 2]

e|-----------------------------------------|
B|*---------------------------------------*|
G|---6\------4-----4--4--4----4--4--6\-----|
D|---6\------4-----4--2--4----4--2--6\-----| x8
A|*--4\------2-----2--2--2----2--2--4\----*|
E|-----------------------------------------|


[Riff 1]

e||----------------------------------------------------------------------|
B||*---------------------------------------------------------------------|
G||----------------------------------------------------------------------|
D||----------------------------------------------------------------------|
A||*--/4---4-4p2-----2---4---4~------/4---4---4p2-----2~-----------------|
E||--------------2--------------------------------2------------------2---|

e|----------------------------------------------------------------------||
B|---------------------------------------------------------------------*||
G|----------------------------------------------------------------------||  x2
D|--------------------------/4~-----4p2------4---4---4p2----------------||
A|---/4---4-4p2-----2---4----------------2----------------2------------*||
E|--------------2-------------------------------------------------------||


[Riff 2]

e|-----------------------------------------|
B|*---------------------------------------*|
G|---6\------4-----4--4--4----4--4--6\-----|
D|---6\------4-----4--2--4----4--2--6\-----| x6
A|*--4\------2-----2--2--2----2--2--4\----*|
E|-----------------------------------------|


[Riff 1]

e|---------------------------------------------------------------------|
B|---------------------------------------------------------------------|
G|---------------------------------------------------------------------|
D|---------------------------------------------------------------------|
A|--/4---4-4p2-----2---4---4~------/4---4---4p2-----2~-----------------|
E|-------------2--------------------------------2------------------2---|

e|---------------------------------------------------------------------|
B|---------------------------------------------------------------------|
G|---------------------------------------------------------------------|  
D|--------------------------/4~-----4p2------4---4---4p2---------------|
A|---/4---4-4p2-----2---4----------------2----------------2------------|
E|--------------2------------------------------------------------------|


Solo

e|----------------------------------------------------------------------|
B|--(14)---(14)----------14t(17)--14t(17)--14t(17)--14t(17)---14t(17)---|
G|---16^18--16^18--------------(16)-----(16)-----(16)-----(16)----------|
D|----------------------------------------------------------------------|
A|----------------------------------------------------------------------|
E|----------------------------------------------------------------------|

e|----------------------------------------------------------------------|
B|---14t(17)--14t(17)--14t(17)--14t(17)----18^20---17---14h17p14-----14-|
G|----------------------------------------------------------------16----|
D|----------------------------------------------------------------------|
A|----------------------------------------------------------------------|
E|----------------------------------------------------------------------|

e|----------------------------------------------------------------------|
B|--14--------/12--9--12--9t(12)----------------------------------------|
G|--16^18\0----------------------9t(11)--9t(11)--9t(11)--9t(11)--11^13\0|
D|----------------------------------------------------------------------|
A|----------------------------------------------------------------------|
E|----------------------------------------------------------------------|

e-|----------------------------------------------------------------------|
B-|----------------------------------------------------------------------|
G-|--/11--11--11--9h11p9-------------------------------------------------|
D-|----------------------11--11p9-----9t(11)--9t(11)--9t(11)--9t(11)-----|
A-|-------------------------------11-------------------------------------|
E-|----------------------------------------------------------------------|

e|------------------------------------------------9---------9-----9-----|
B|--------------------------------------------------12--14--12^14-12^14-|
G|-----------------------------------9--11--11^13-----------------------|
D|----------------------------9--11-------------------------------------|
A|--9h11--9--7------7--9--11--------------------------------------------|
E|--------------9-------------------------------------------------------|

e|--9t(12)--------------------------------------------------------------|
B|---------9t(12)-------------------------------------------------------|
G|----------------9t(11)-----------------9t(11)--9t(11)--9t(11)--9t(11)-|
D|-----------------------9t(11)--9t(11)---------------------------------|
A|----------------------------------------------------------------------|
E|----------------------------------------------------------------------|

e|----------------------------------------------------------------------|
B|--9^12--9^12--9^12--9^12--9^12---13-16-11-13-16-11-13-16-11-13-16-11--|
G|----------------------------------------------------------------------|
D|----------------------------------------------------------------------|
A|----------------------------------------------------------------------|
E|----------------------------------------------------------------------|

e|-----------------------------------------12^14--14--9h12p9------9-----|
B|--12^14----12---9-------------------11---------------------12---12^14-|
G|--------------------11p9------11^13-----------------------------------|
D|-------------------------11-------------------------------------------|
A|----------------------------------------------------------------------|
E|----------------------------------------------------------------------|

e|----------------------------------------------------------------------|
B|--12---9--------------------------------------------------------------|
G|-----------11--9------------------------------------------------------|
D|-----------------11---11\---------------------------------------------|
A|----------------------------------------------------------------------|
E|----------------------------------------------------------------------|


[Riff 1]

e||----------------------------------------------------------------------|
B||*---------------------------------------------------------------------|
G||----------------------------------------------------------------------|
D||----------------------------------------------------------------------|
A||*--/4---4-4p2-----2---4---4~------/4---4---4p2-----2~-----------------|
E||--------------2--------------------------------2------------------2---|

e|----------------------------------------------------------------------||
B|---------------------------------------------------------------------*||
G|----------------------------------------------------------------------||  x2
D|--------------------------/4~-----4p2------4---4---4p2----------------||
A|---/4---4-4p2-----2---4----------------2----------------2------------*||
E|--------------2-------------------------------------------------------||


(Percussion Solo)


[Riff 1]

e||----------------------------------------------------------------------|
B||*---------------------------------------------------------------------|
G||----------------------------------------------------------------------|
D||----------------------------------------------------------------------|
A||*--/4---4-4p2-----2---4---4~------/4---4---4p2-----2~-----------------|
E||--------------2--------------------------------2------------------2---|

e|----------------------------------------------------------------------||
B|---------------------------------------------------------------------*||
G|----------------------------------------------------------------------||  x8
D|--------------------------/4~-----4p2------4---4---4p2----------------||
A|---/4---4-4p2-----2---4----------------2----------------2------------*||
E|--------------2-------------------------------------------------------||


[Riff 2]

e|-----------------------------------------|
B|*---------------------------------------*|
G|---6\------4-----4--4--4----4--4--6\-----|
D|---6\------4-----4--2--4----4--2--6\-----| 
A|*--4\------2-----2--2--2----2--2--4\----*|
E|-----------------------------------------|

(until fade out)


************************************

| (n)  Ghost note
| h    Hammer-on
| p    Pull-off
| /    Slide up
| \    Slide down
| ~    Vibrato 
| ^    Bend
| t    Trill

************************************
Suggest correction
comments
print report bad tab
13 comments total. Showing first comments. show 1 bad comment
+1 reply
leander m. 1,421 wrote on February 18 2003, 12:00 am

good work men, can you make the solo of N.I.B. plz.

+3 reply
smellyjosh 236 wrote on October 13 2004, 12:00 am

nice work, but it would have been nicer if you tabbed it in Db

guest
You may want to rate the tab now too:
select rating
Please do not post tabs as comments. Select "correction" instead!