Oops, an error
Loading. Please wait.

Supernaut Tab

version 4
version 4

Solo

Whole song

Interactive

7,857 views 60 this week
3 commentsread comments
1 2 3 4 5
accurate
x 7
add to favorites
launch autoscroll
font size
0
reset
how to read this tab
guitar tuner
Tab Pro tools
  • play this tab
  • loop segment
  • change instrument
  • show fretboard
  • metronome
Autoscroll
slow
fast
+/-
esc
set tempo
stop
Contributor
Transcribed by www.mikesguitarsite.co.ukWords and Music by Tony Iommi, John
Michael "Ozzy" Osbourne, Bill Ward & Terence "Geezer" ButlerAll guitars
C# F# B E G# C# tuning

Gtr I, III - 'Toni Iommi distortion guitar'
Gtr II - 'Toni Iommi distortion guitar with wah wah'
Gtr IV - 'Toni Iommi Steel String Acoustic'

Intro
  Q=116
 4/4
  Gtrs I, II
                                ~~                   ~~
  Wx2          a E. S a E E E E E. +S    a e e S S E Q.   E
|------------|-------------------------|---------------------|
|------------|-------------------------|---------------------|
|------------|-------------------------|---------------------|
|------------|-------------------------|---------------------|
|------------|-5s7--5-7s5-0-5-7-7--(7)-|-5s7-7-7s5-0-5----0--|
|------------|-------------------------|---------------------|
             |-Riff A

                     ~~~~~~~~~
  a E. S a E E E E a Q    +Q   a E E a e e S S E
|-----------------------|------------------------|
|-----------------------|------------------------|
|-----------------------|------------------------|
|------------------5s7--|-(7)--7s5-0-5s7-7-7s5-0-| repeat Riff A
|-5s7--7-7s5-0-5-7------|------------------------|
|-----------------------|------------------------|
|                                     end Riff 1-A
| Gtr III
|   W                      W                       a E. S a E E E E Q
|-----------------------|------------------------|--------------------------|
|-----------------------|------------------------|--------------------------|
|-----------------------|------------------------|--------------------------|
|-----------------------|------------------------|-4s6--6-6s4---4s6-6-------|
|-----------------------|------------------------|------------6-------------|
|-----------------------|------------------------|--------------------------|
                                                 |- Riff A1


              ~~                          ~~~~~~~~~
  a E E S S E H        a E. S a E E E E a Q    +Q   a E E   e e Q
|--------------------|-----------------------|-------------------------||
|--------------------|-----------------------|-------------------------||
|--------------------|------------------4s6--|-(6)--6s4-----4----------||
|-4s6-6-6s4---4------|-4s6--6-6s4---4-6------|----------6-----6-4------||
|-----------6--------|------------6----------|-------------------------||
|--------------------|-----------------------|-------------------------||
                                                           end Riff A1-|

  Gtrs I, II
  Q    E E   E E E S S   Q  E E E. S E S S
|----------------------|-----------------7-|
|----------------------|-------------------|
|-7\---------------7-7-|-7--7---7------7-7-|
|-6\---------------7-7-|-7--7-5-7------6-6-|
|-7\---------------5-5-|-5--5-5-5--7p5-7-7-|
|-----/9-0-/10-0-0-----|-------------------|


  Q    E E   E E E E   +Q   E E Q  S E  S
|-7\-----------------|-----------------(0)--|
|--------------------|----------------------|
|-7\---------------7-|-(7)------7-----------|
|-6\---------------7-|-(7)--7-5-7-----------|
|-7\---------------5-|-(5)--5-5-5--7p5--7---|
|-----/8-0-/10-0-0---|----------------------|


  Q    E E   E E E E   +Q   E E Q  S S S S
|-7\-----------------|---------------------|
|--------------------|---------------------|
|-7\---------------7-|-(7)------7----------|
|-6\---------------7-|-(7)--7-5-7----------|
|-7\---------------5-|-(5)--5-5-5--7p5-7s6-|
|-----/8-0-/10-0-0---|---------------------|


                                       |3|
  Q    E E   E E E E   +Q   E E Q  S S E S
|-7\-----------------|---------------------|
|--------------------|---------------------|
|-7\---------------7-|-(7)--7---7--------7-|
|-6\---------------7-|-(7)--7-5-7--------6-|
|-7\---------------5-|-(5)--5-5-5--7p5-6-7-|
|-----/8-0-/10-0-0---|---------------------|


   Verse 1
    Q    E E   E E E E   +Q   E E Q  S S S S  3x
||--7\-----------------|-------------------7--||
||o--------------------|---------------------o||
||--7\---------------7-|-(7)--7---7--------7--||
||--6\---------------7-|-(7)--7-5-7-----------||
||o-7\---------------5-|-(5)--5-5-5--7p5-7-7-o||
||------/8-0-/10-0-0---|----------------------||
 |Rhy Fig 1                     end Rhy Fig 1-|

Chorus 
Riff A
Riff A + Riff A1
Rhy Fig 1 x2


VERSE 2
Rhy Fig 1 x3


  Q    E E   E E E S S   Q  E E Q  S S E
|-7\-------------------|-----------------|
|----------------------|-----------------|
|-7\---------------7-7-|-7------7--------|
|-6\---------------7-7-|-7--7-5-7--------|
|-7\---------------5-5-|-5--5-5-5--7p5-0-|
|-----/9-0-/11-0-0-----|-----------------|


Riff A

    W                      H            E       E   Q
|-----------------------|--------------12------12--12-------||
|-----------------------|--------------15pb17==15r-15-------||
|-----------------------|-----------------------------------||
|-----------------------|-----------------------------------||
|-----------------------|-----------------------------------||
|-----------------------|-----------------------------------||


 Guitar Solo with Riff A + A1 (both x5)
  Gtr I
     |--3--|                |3-|          |------5------|
     S  S  S  S  a  T  T    E  S  T  S.   S  S  S    S  S  Q
|---12h14p12----12h15p12------12h15p12------15p12---------12tr15-----|
|------------12-------------------------(14)--------15p12------------|
|--------------------------15----------------------------------------|
|--------------------------------------------------------------------|
|--------------------------------------------------------------------|
|--------------------------------------------------------------------|


     Q        Q          Q       Q
|---12tr15---12tr15-----12tr15--12tr15---|
|----------------------------------------|
|----------------------------------------|
|----------------------------------------|
|----------------------------------------|
|----------------------------------------|


                         |--3--|
     Q       a      +E   S  S  S  E       E        E      E
|---15b18---15pb17r(15)-12h15p12------------------12-----12--|
|--------------------------------15b15.5-15pb17---15b17==15rs|
|------------------------------------------------------------|
|------------------------------------------------------------|
|------------------------------------------------------------|
|------------------------------------------------------------|


                     |--3--|
   E  a  E   E  e    S  S  S  S  S      E..        T
|----------------------------------------------------|
|--4--8s15---0-15---12h15p12-------------------------|
|----------------------------14-12tr14-12tr14--------|
|-------------------------------------------------14-|
|----------------------------------------------------|
|----------------------------------------------------|


                               ~~~~
     H.                 S     +E.
|-------------------------------------|
|-------------------------------------|
|---12tr14-------------14b15-(14)-----|
|-------------------------------------|
|-------------------------------------|
|-------------------------------------|


                            |--3--|     |--3--|
      E    E  e    e        S  S  S  E  S  S  S  E
|--------------------------------------------------|
|--------------------------------------------------|
|---\(1)-/13-14---14pb14.5-12h14p12----------------|
|-----------------------------------14-12h14p12----|
|-----------------------------------------------14-|
|--------------------------------------------------|


     H.                   E  E
|------------------------------|
|------------------------------|
|------------------------------|
|---12tr14---------------12----|
|---------------------------12-|
|------------------------------|


                                       |--3--|
   a  S   S  E  a  S  E        a  S    S  S  S  S  S  S  S     T  T  S
|----------------------------------------------------------------------|
|-------------------------------------------------------12-------------|
|----------------------------------------------12----12-14b15-14p12----|
|-------------------------------------12h14p12----14----------------14-|
|-10h12p=10----------10tr12---12h14------------------------------------|
|-----------12-10h12---------------------------------------------------|


     |--3--|
     E     S  E      E  E        Q       E.    +S
|------------12-----------------12------12----(12)-|
|---12----12--------15-15pb16.5-15b17---15b17r(15)-|
|---14b15------------------------------------------|
|--------------------------------------------------|
|--------------------------------------------------|
|--------------------------------------------------|



     E.      +S   e        e      e        e      E     e
|---12------(12)-12-------12-----12-------12-----12----12-----|
|---15b17r==(15)-15pb17---15pb17-15pb16.5-15pb17-15b17-15pb17-|
|-------------------------------------------------------------|
|-------------------------------------------------------------|
|-------------------------------------------------------------|
|-------------------------------------------------------------|



     E..      T    E..      T  E..      T    Q
|---12tr14------------------------------------------|
|------------15---12tr15----------------------------|
|--------------------------14-12tr14----------------|
|--------------------------------------14---12tr14--|
|---------------------------------------------------|
|---------------------------------------------------|



                                  |---3---|            |---3---|
   +Q          Q          E      +E       S  E        +E       S
|----------------------------------------------------------------|
|----------------------------------------------------------------|
|-------------12tr14-----12tr14-(12tr14)----12tr14---(12tr14)----|
|-(12tr14)-------------------------------14-------------------14-|
|----------------------------------------------------------------|
|----------------------------------------------------------------|



                          |---3---|          |---3---|     |--3--|
     Q          +E       +E       S  E      +E       S  a  S  S  S  E
|-------------------------------------------------------------------------|
|-------------------------------------------------------------------------|
|---12tr14-----(12tr14)-(12tr14)----12tr14-(12tr14)----12h14p12h14p12-----|
|--------------------------------14-----------------14--------------------|
|-------------------------------------------------------------------------|
|-------------------------------------------------------------------------|


     Q        Q          Q       Q
|-----------------------------------------|
|-----------------------------------------|
|---12tr14---12tr14-----12tr14--12tr14----|
|-----------------------------------------|
|-----------------------------------------|
|-----------------------------------------|


     E      E       E      E   E     E        E      E
|-------------------------------------------------------|
|-----------------------------12----12-------12-----12--|
|---14b15==14r-----14b15==14r-14b15-14pb16---14b15==14r-|
|-------------------------------------------------------|
|-------------------------------------------------------|
|-------------------------------------------------------|



   E     E        S  S  S     S    S  S     S  S  S     S  S  S
|------------------------------------------------------------------|
|-12----12-------12-15-------12---15-------12-15-------12-15-------|
|-14b15-14pb16---------14b15---------14b15-------14b16-------14b15-|
|------------------------------------------------------------------|
|------------------------------------------------------------------|
|------------------------------------------------------------------|


     S   S  S     S    S  S  S     S  S  S  S     S  S   S  S     S
|--------------------------------------------------------------------|
|---12--15-------12---12-15-------12-12-15-------12-12--15-------12--|
|----------14b15------------14b15----------14b15-----------14b15-----|
|--------------------------------------------------------------------|
|--------------------------------------------------------------------|
|--------------------------------------------------------------------|


     S  S     S  S  S  S  E  E   E     S  S  e
|-------------------------------12b14----------|
|---15-------12-15----12-12-15--------15p12----|
|------14b15-------14-----------------------14-|
|----------------------------------------------|
|----------------------------------------------|
|----------------------------------------------|


     S  S  e      E       E  e     e  a  S  S  E
|---------------------------15b17-15-12h15p12----|
|------------------------12-------------------15-|
|---14p12--------14b14.5-------------------------|
|---------14-------------------------------------|
|------------------------------------------------|
|------------------------------------------------|


   E   E       E      E       E  E  a  S  S  E
|-12----------12-----12-------------------------|
|-----15b16---15pb17-15b17---15-12--------------|
|----------------------------------12h14p12-----|
|-------------------------------------------14--|
|-----------------------------------------------|
|-----------------------------------------------|

Riff A
Riff A + A1

 Drum break
             Gtr IV
  Wx4          S E S S S E H      q  S S E S S S S S S E
|------------|------------------|-7--7-7---7-7-----7-7---|
|------------|-9---9-9-9--------|-7--7-7---7-7-----7-7---|
|------------|-9---9-9-9--------|-8--8-8---8-8---x-8-8---|
|------------|-9---9-9-9--------|-9--9-9---9-9---x-9-9---|
|------------|-7---7-7-7--------|-9--9-9---9-9---x-9-9---|
|------------|-----------7------|-7--7-7---7-7---x-7-7---|


    S E S S S E S S E S S E   S S E S S S S S S S S S S E  7x
||--------------0-0---0-0---|-7-7---7-7-----7-7-----7-7----||
||o-9---9-9-9---0-0---0-0---|-7-7---7-7-----7-7-----7-7---o||
||--9---9-9-9---------------|-8-8---8-8---x-8-8---x-8-8----||
||--9---9-9-9---7-7---7-7---|-9-9---9-9---x-9-9---x-9-9----||
||o-7---7-7-7---------------|-9-9---9-9---x-9-9---x-9-9---o||
||--7---------------------7-|-7-7---7-7---x-7-7---x-7-7----||


  Gtr I                                  Gtrs I, II
  E  E  E E  E E E E   +Q   E E Q  E S S   E  E  E E  E E E E
|--------------------|---------------7-7-|-7\------------------|
|--------------------|-------------------|---------------------|
|-7\---------------7-|-(7)--7---7----7-7-|-7\---------------7--|
|-6\---------------7-|-(7)--7-5-7--------|-6\---------------7--|
|-7\-------------0-5-|-(5)--5-5-5--5-7-7-|-7\---------------5--|
|----0-/8-0-/9-0-----|-------------------|----0-/9-0-/9-0-0----|


  +Q   E E Q  S S S S   Q    E E  E E E E   E. S E E Q  S S S S
|-----------------7-7-|-7\----------------|---------------------|
|---------------------|-------------------|---------------------|
|-(7)--7---7------7-7-|-7\--------------7-|-7--7-7---7----------|
|-(7)--7-5-7----------|-6\--------------7-|-7--7-7-5-7----------|
|-(5)--5-5-5--7p5-7-7-|-7\--------------5-|-5--5-5-5-5--7p5-7-6-|
|---------------------|-----/8-0-/8-0-0---|---------------------|


  Q    E E   E E E E   +Q   E E Q  S S S S
|--------------------|-------------------7-||
|--------------------|---------------------||
|-7\---------------7-|-(7)--7---7--------7-||
|-6\---------------7-|-(7)--7-5-7----------||
|-7\---------------5-|-(5)--5-5-5--7p5-7-7-||
|-----/8-0-/10-0-0---|---------------------||


   Verse 3
Rhy Fig 1 x3

  Q    E E  E E E E   Q  E E Q  E E
|-7\----------------|-----------0---||
|-------------------|-----------0---||
|-7\--------------7-|-7--7---7--7---||
|-6\--------------7-|-7--7-5-7--7---||
|-7\--------------5-|-5--5-5-5--5-5-||
|-----/8-0-/8-0-0---|---------------||

Chorus
Riff A
Riff A + Riff A1 (to fade x10)
comments
print report bad tab
3 comments total. show 1 bad comment
+1 reply
xHellbound wrote on April 23 2008, 11:30 am

petergreen: Version 1 sucks. Iommi has multiple guitar tracks on just about every song he does. This version is very accurate to the album version. Except for the intro riff, which I think is barred. =P

0 reply
jpjeffery wrote on February 17 2012, 06:13 am

I'm with xHellbound. If you want to know how to play a track properly then sometimes you just have to deal with 'complicated'. This is the best TAB of Supernaut I've seen.

Apart from anything else, this is the only tab that I've found of Supernaut which includes the acoustic guitar part over the drum solo!

Although I'll always maintain notation, or notation with TAB, is better than just TAB. :)

I want to post or [tab]
guest
You may want to rate the tab now too:
select rating
Please do not post tabs as comments. Select "correction" instead!