Oops, an error
Loading. Please wait.

Supernaut Tab

version 5
version 5

Whole song

Interactive

15,693 views 15 this week
1 commentread comment
1 2 3 4 5
excellent!
x 9
add to favorites
launch autoscroll
font size
0
reset
how to read this tab
guitar tuner
Tab Pro tools
  • play this tab
  • loop segment
  • change instrument
  • show fretboard
  • metronome
×
Best way to learn
"Supernaut"
Autoscroll
slow
fast
+/-
esc
set tempo
stop
Contributor
Difficulty
intermediate
black sabbath
supernaut
thelordofguitar
|---------------------------------------------------------------------|
|---------------------------------------------------------------------|
|---------------------------------------------------------------------|
|-----------------------------------------------------------5/7~~-----|
|--5/7-7-7p5---5-7-7~~--5/7-7-7p5---5~~-----5/7-7-7p5---5-7-----------|
|------------5--------------------5-------5-----------5---------------|


|------------------||-------------------------------------------------|
|------------------||-------------------------------------------------|
|------------------||--7--------------------2--------2--0--2-----2----|
|--7\5---7-7-7\5---||--6--------------------0--------0--0--0-----0----|
|------5---------5-||--7----------------------------------------------|
|------------------||-----0-/7--0-/7--0--0----------------------------|
                        (slide up palm mute)

Solo:                                                            trill:
|--12--12---121512--121512---121512-121512------12151215--|
|--15^-15^--------12------12---------------1512-----------|
|---------------------------------------------------------|
|---------------------------------------------------------|
|---------------------------------------------------------|
|---------------------------------------------------------|


|-17^---15-121512----12-12-12\----------------------------------------|
|-----------------15-----------\--17-12-15-121512------trill:---------|
|-------------------------------9/---------------1412-14121412--------|
|---------------------------------------------------------------------|
|---------------------------------------------------------------------|
|---------------------------------------------------------------------|


|-----------------------------------------------------------------------------|
|-----------------------------------------------------------------------------|
|-14^-------12-14-14-1412---------------trill:--------------------------------|
|--------14---------------14-1412------12141214-----1412----------------------|
|---------------------------------14---------------------12-12p10---10121012--|
|-----------------------------------------------------------------12----------|

                                                                                        trills:
|-----------------------------12----12---------------------15t12------------------|
|--------------------------------15^--15^--^--15^--^^^^^^-------15t12-------------|
|-------12--121412-1412----14^---------------------------------------15t12--------|
|-121412--14-----------14--------------------------------------------------15t12--|
|---------------------------------------------------------------------------------|
|---------------------------------------------------------------------------------|


|--------------------------------------------------------------------------|
|--------------------------------------------------------------------------|
|----------14t12^^^^^^^^^^^^^^-------14^14^14^14^14^14^14^14^14^14^14^14^--|
|-14t12--------------------------------------------------------------------|
|--------------------------------------------------------------------------|
|--------------------------------------------------------------------------|


|------------------------------------------------||--------------12--------|
|-15----12-15----12-15----12-15-----and so on...-||-----12-12-15^--1512----|
|----14-------14-------14^------14^--------------||-14^----------------14--|
|------------------------------------------------||------------------------|
|------------------------------------------------||------------------------|
|------------------------------------------------||------------------------|


|----------------15^-15-1512----12-----12-12----------------------|
|-------------12-------------15----15^-------15-12----------------|
|-1412----14^--------------------------------------1512-----------|
|------14-----------------------------------------------14--14\---|
|-----------------------------------------------------------------|
|-----------------------------------------------------------------|
comments
print report bad tab
1 comment total.
0 reply
red_explor wrote on March 14 2016, 01:32 pm

should it not be an A chord after the muting?

I want to post or [tab]
guest
You may want to rate the tab now too:
select rating
Please do not post tabs as comments. Select "correction" instead!