Oops, an error
Loading. Please wait.

Sweat Leaf ukulele

211 views 1 this week
no commentswrite comment
1 2 3 4 5
3 more votes to show rating
add to favorites
×
Save as Personal and add changes to this tab that will be seen only by you. Learn more ›
×
You can save this tab as Personal to edit and correct it or add notes. All changes will be seen only by you. Learn more »
launch autoscroll
font size
0
reset
transpose
0
reset
display chords
guitar tuner
edit
Autoscroll
slow
fast
+/-
esc
set tempo
stop
Author
Difficulty
About this tab version
There is None for ukulele. Was this info helpful? Yes No
Strumming Is this strumming pattern correct? Yes No
Verse 120 bpm
1
&
2
&
3
&
4
&
Listen
[Intro]
    A A   D  D C  A   D
A|---0-0-x---------0------|
E|---0-0-x--2-1-0--0-0-2--|
C|---1-1-x--2-1-0--1-0-2--|
G|---2-2-x--2-1-0--2-0-2--|

"Coughing"
Alright now!
Won't you listen?

[Verse 1]
A|-7------------5----10-----|-14----7-------------|
E|-5------------3-----8-----|-12----5-------------|(x4)
C|--------------------------|---------------------|
G|--------------------------|---------------------|
When I first met you, didn't realize
I can't forget you or your surprise
You introduced me to my mind
And left me wanting, you and your kind
I love you, Oh you know it

[Verse 2]
A|--------------------------|---------------------------|
E|-3-5----------3-----------|---------------5-----------|(x4)
C|--------------------------|-2-------2-----------------|
G|--------------------5-----|--^1---------5-------------| 
My life was empty, forever on a down
Until you took me, showed me around
My life is free now, my life is clear
I love you sweet leaf, though you get dear

Come on now, try it out

[Verse 3]
    A A   D  D C  A   D
A|---0-0-x---------0------|
E|---0-0-x--2-1-0--0-0-2--|(x4)
C|---1-1-x--2-1-0--1-0-2--|
G|---2-2-x--2-1-0--2-0-2--|
Straight people don't know, what you're about
They put you down and shut you out
You gave to me a new belief
And soon the world will love you sweet leaf


************************************

| x  Dead note

************************************

            
            
Suggest correction
Creating personal tab
Creating personal tab
You can edit any tab online and save it as your Personal.

You can edit, replace or remove any tab part or add personal notes – all changes will be seen only by you.

Personal tabs can be accessed anytime from any device, even offline.
Learn more »
Give kudos to tab author, rate the tab!
1 2 3 4 5
comments
print report bad tab
guest
You may want to rate the tab now too:
select rating
Wanna post a correction for this tab? Suggest correction