Oops, an error
Loading. Please wait.

Sweet Leaf Tab

version 1
version 1

Intro

Interactive

14,999 views 6 this week
3 commentsread comments
1 2 3 4 5
x 6
add to favorites
launch autoscroll
font size
0
reset
how to read this tab
guitar tuner
Autoscroll
slow
fast
+/-
esc
set tempo
stop
Help us to improve Ultimate-Guitar.com Take our survey!
×
Author
I played this along with the actual song and it's 100% spot on perfect

E|----------------------------------------------------------------||
B|----------------------------------------------------------------||
G|----------------------------------------------------------------||
D|--2-2---7/5--5/7----2-2---7/5--5/7------------------------------|| x2
A|--0-0---5/3--3/5----0-0---5/3--3/5------------------------------||
E|----------------------------------------------------------------||

or you can also do it this way, which some might find a bit easier
as you don't have to move your hand as much


E|----------------------------------------------------------------||
B|----------------------------------------------------------------||
G|----------------------------------------------------------------||
D|---------7/5--5/7---------7/5--5/7------------------------------||x2
A|---7-7---5/3--3/5---7-7---5/3--3/5------------------------------||
E|---5-5--------------5-5-----------------------------------------||
Suggest correction
comments
print report bad tab
3 comments total.
0 reply
A6StringWorld 51 Oct 28, 2007 06:56 PM

nice tab this one sounds the best out of them all if you play it.

-1 reply
jared_clark 10 Jul 09, 2008 04:23 PM

This tab is mo' ****ing bull-shit. Sober the **** up and try again cock breath.

+1 reply
logan.weiland.5 10 Dec 03, 2013 11:20 AM

E|----------------------------------------------------------------||
B|----------------------------------------------------------------||
G|----------------------------------------------------------------||
D|--2-2---7-6-5---5-7----2-2---7-6-5---5-7------------------------|| x2
A|--0-0---7-4-3---3-5----0-0---7-6-3---5-7------------------------||
E|--------5-4-3---3-5----------5-4-3---3-5------------------------||

<<<<<<<<< OR THIS WAY >>>>>>>>>>

E|----------------------------------------------------------------||
B|----------------------------------------------------------------||
G|---------7-6-5--5/7---------7-6-5--5/7--------------------------||
D|---7-7---7-6-5--5/7---7-7---7-6-5--5/7--------------------------||x2
A|---7-7---5-4-3--3/5---7-7---5-4-3--3/5--------------------------||
E|---5-5----------------5-5---------------------------------------||

You were missing an entire chord. But if you can get it to sound right by sliding, rock on. I find that I can hear it better my way.

You're welcome.

guest
You may want to rate the tab now too:
select rating
Wanna post a correction for this tab? Suggest correction