Oops, an error
Loading. Please wait.

Sweet Leaf Tab

version 4
version 4

Intro

Interactive

111,913 views 513 this week
16 commentsread comments
1 2 3 4 5
excellent!
x 55
add to favorites
launch autoscroll
font size
0
reset
how to read this tab
guitar tuner
Tab Pro tools
  • play this tab
  • loop segment
  • change instrument
  • show fretboard
  • metronome
Autoscroll
slow
fast
+/-
esc
set tempo
stop
Contributor
Difficulty
intermediate
Don't worry about this tab cause I know it is right!

intro

 A5            D5 Db5 C5     D5  A5            D5 Db5 C5      D5
|-------------------------------|-------------------------------|
|-------------------------------|-------------------------------|
|-------------------------------|-------------------------------| X3
|---------x--x--7--6--5-----5/7-|---------x--x--7--6--5-----5/7-| 
|-7---7---x--x--5--4--3-----3/5-|-7---7---x--x--5--4--3-----3/5-|
|-5---5-------------------------|-5---5-------------------------|

verse 1

 A5           G5    C5       E5    A5
|--------------------------|---------------------|
|--------------------------|---------------------|
|--------------------------|---------------------| X4
|--------------------------|---------------------|
|-7------------5----10-----|-14----7-------------|
|-5------------3-----8-----|-12----5-------------|

Interlude

   A5         D5 Db5 C5          D5      A5         D5 Db5 C5         D5
|-------------------------------------|----------------------------------|
|-------------------------------------|----------------------------------|
|-------------7--6--5------5--/--7----|-------------7--6--5-----5--/--7--|X3
|-5/7---7\----------------------------|-5/7---7\-------------------------|
|-------------------------------------|----------------------------------|
|-------------------------------------|----------------------------------|

Verse 2

   A5         G5     C5      E5           A5
|--------------------------|---------------------------|
|--------------------------|---------------------------|
|--------------------5-----|-7^1--/--7-/-5-------------| X4
|-5/7----------5-----------|---------------7-----------|
|--------------------------|---------------------------|
|--------------------------|---------------------------|

Bridge

   A5                LONG PAUSE...              B
|------------------------|-------------------------|---------------|
|------------------------|-------------------------|---------------|
|------------------------|-------------------------|---------------|
|---7--\-----------------|-------------------------|---------------|
|------------------------|-------------------------|---------------|
|------------------------|-------------------------|---------------|

|--------------------|---------------------|--------------------------|
|--------------------|-----------------4---|---4------------------4---|
|--------------------|-----------------4---|---4------------------4---|
|--------------------|-----------------4---|---4------------------4---|
|---7----------7-----|-7--------7------2---|---2------------------2---|
|---5----------5-----|-5--------5----------|--------------------------|

Bridge Cont.
                                  C#                                B
|--------------------------|-------------------------|------------------|
|------4----4----4----4----|--4-/-6---6--------------|--------------4---|
|------4----4----4----4----|--4-/-6---6--------------|--------------4---|
|------4----4----4----4----|--4-/-6---6--------------|--------------4---|
|------2----2----2----2----|--2-/-4---4--------------|--------------2---|
|--------------------------|-------------------------|------------------|

Bridge Cont.
                                                  C#
|--------------------|----------------------|------------------------------|
|------4----------4--|--4----4----4----4----|--4-/-6---6---6--------6---7--|
|------4----------4--|--4----4----4----4----|--4-/-6---6---6---------------|
|------4----------4--|--4----4----4----4----|--4-/-6---6---6---------------|
|------2----------2--|--2----2----2----2----|--2-/-4---4---4---------------|
|--------------------|----------------------|------------------------------|

Bridge Cont.
                                    
|-----------------------------------|-------|  |-----------------|
|--6-/7-/6------6---7---6-/7-/6-----|-6---7-|  |----7-/9---------|
|-----------6--------------------6--|-------|X8|-----------------|
|-----------------------------------|-------|  |-----------------|
|-----------------------------------|-------|  |-----------------|
|-----------------------------------|-------|  |-----------------|

Solo

|------------------------9--------------------|---------------9------------|
|--------12^1---12^1-------12/9---------------|------------9-----12-12^1---|
|-------------------------------11-11-11-9----|---9-11^1-------------------|
|------------------------------------------11-|----------------------------|
|---------------------------------------------|----------------------------|
|---------------------------------------------|----------------------------|

Solo Cont.

|------------------9----------------|-----------------------------------|
|-12^1----12^1-------12/9-----------|-----------------------------------|
|-------------------------11-9-9--9-|----------9------------------------|
|-----------------------------------|------------11-11-9----------------|
|-----------------------------------|--------------------11--9--7-----7-|
|-----------------------------------|------------------------------7----|

Solo Cont.

|-------------------9------------|-------------------------9-----------|
|-12^1----12^1----------12-9-----|-----------------------9----12^1-----|
|----------------------------11--|--9-------9--11^1--------------------|
|--------------------------------|------11-----------------------------|
|--------------------------------|-------------------------------------|
|--------------------------------|-------------------------------------|

Solo Cont.

|-----------------------9----------------------|
|------12^1-----12^1-------12-/9---------------|
|---------------------------------11--9--11--9-|
|----------------------------------------------|
|----------------------------------------------|
|----------------------------------------------|

Solo Cont.
                                           C#5     A5  G#5 G5
|----------------------------------------|------------------------|--------|
|----------------------------------------|------------------------|--------|
|----------------------------------------|------------------------|--------|
|-11-/9--1---11-/9-----------------------|------------------------|--------|
|------------------11--11/9---7----------|--11------7-\-6---5-----|---5----|
|---------------------------------7------|--9-------5-\-4---3-----|---3----|

Interlude

   A5        D5 Db5 C5      D5
|------------------------------|
|------------------------------|
|-------------7--6--5---5-/-7--| X4
|-5/7--7-\---------------------|
|------------------------------|
|------------------------------|

Interlude Cont.

    A5           D5 Db5 C5      D5          A5    G5    C5    E5    A5
|-----------------------------------|    |------------------|--------------|
|-----------------------------------|    |------------------|--------------|
|-----------------7--6--5----5-/-7--| X4 |---------------5--|-7^1--7-/5----|
|---5/7---7-\-----------------------|    |-5/7-----5--------|-----------7--|
|-----------------------------------|    |------------------|--------------|
|-----------------------------------|    |------------------|--------------|

Outro                                                     
                                                          Repeat and Fade
   A5         D5  Db5 C5         D5      A5         D5  Db5 C5         D5
|-------------------------------------|------------------------------------|
|-------------------------------------|------------------------------------|
|--------------7---6---5------5-\-7---|--------------7---6---5------5-\-7--|
|-5/7---7-\---------------------------|-5/7---7-\--------------------------|
|-------------------------------------|------------------------------------|
|-------------------------------------|------------------------------------|

If you have any questions just e-mail me at GuMbO7399@yahoo.com 
Or you can send me a friend request on X-Box Live

                                      PACE
comments
print report bad tab
16 comments total. Showing first comments.
-1 reply
#_of_the_beast wrote on October 10 2005, 05:37 am

its quite obvious u just took this right out of guitar one, dont worry i wont tell, anyway its correct.

+14 reply
cococolajourney wrote on July 22 2006, 01:24 pm

as long as its correct it doesnt matter =D

+1 reply
ozzyosbourne675 wrote on October 14 2006, 11:09 pm

this song is awosome! great tab~~~~~

I want to post or [tab]
guest
You may want to rate the tab now too:
select rating
Please do not post tabs as comments. Select "correction" instead!