Oops, an error
Loading. Please wait.

Sweet Leaf Tab

version 5
version 5
9,528 views 3 this week
4 commentsread comments
1 2 3 4 5
accurate
x 8
add to favorites
launch autoscroll
font size
0
reset
how to read this tab
guitar tuner
Tab Pro tools
  • play this tab
  • loop segment
  • change instrument
  • show fretboard
  • metronome
×
Best way to learn
"Sweet Leaf"
Autoscroll
slow
fast
+/-
esc
set tempo
stop
Contributor


-------------------------------------------------------------------------------
                             Sweet Leaf - Black Sabbath
-------------------------------------------------------------------------------


Tabbed by:  KirK_H@mmeT                  NZ
Email: necro_cannible@hotmail.com

Tuning: Down 1 1/2




This tab hasn't been done properly yet. An easy song that everyone should know. 




00:00
C#|----------------------------------------------------|
G#|----------------------------------------------------|
E |----------------------------------------------------|
B |---4--4---xx-9-8-7---7-/9---------------------------|
F#|---2--2---xx-7-6-5---5-/7---------------------------|
C#|----------------------------------------------------|x14


00:51
C#|----------------------------------------------------|
G#|----------------------------------------------------|
E |----------------------------------------------------|
B |----------------------------------------------------|
F#|---9------7--12---16xx-9----------------------------|
C#|---7------5--10---14xx-7----------------------------|x4





02:02
C#|----------------------------------------------------|
G#|----------------------------------------------------|
E |----------------------------------------------------|
B |---4--4---xx-9-8-7---7-/9---------------------------|
F#|---2--2---xx-7-6-5---5-/7---------------------------|
C#|----------------------------------------------------|x14



00:51
C#|----------------------------------------------------|
G#|----------------------------------------------------|
E |----------------------------------------------------|
B |----------------------------------------------------|
F#|---9------7--12---/16xx-9---------------------------|
C#|---7------5--10---/14xx-7---------------------------|x4





02:27
C#|----------------------------------------------------|
G#|----------------------------------------------------|
E |----------------------------------------------------|
B |----------------------------------------------------|
F#|---9-----9-----9-----9------------------------------|
C#|---7-----7-----7-----7------------------------------|


02:33
C#|----------------------------------------------------|
G#|----------------------------------------------------|
E |----------------------------------------------------|
B |----------------------------------------------------|
F#|---11----11-11-11-11-11/13--------------------------|
C#|---9-----9--9--9--9--9-/11--------------------------|x3





02:48
C#|----------------------------------------------------|
G#|----13--14--13h14p13--------------------------------|
E |--------------------14------------------------------|
B |----------------------------------------------------|
F#|----------------------------------------------------|
C#|----------------------------------------------------|x15


C#|----------------------------------------------------|
G#|----13--14--14/16-----------------------------------|
E |----------------------------------------------------|
B |----------------------------------------------------|
F#|----------------------------------------------------|
C#|----------------------------------------------------|



solo
03:01
C#|---12^------12----------------------------------------|
G#|---15^--15----15p12-----------------------------------|
E |--------------------14-14--12-14-12-------------------|
B |------------------------------------14----------------|
F#|------------------------------------------------------|
C#|------------------------------------------------------|


C#|-------------12---------------12----------------------|
G#|-----------12---15^-15^--15^----15p12-----------------|
E |--12-12h14---------------------------14p12--12--------|
B |------------------------------------------14----------|
F#|------------------------------------------------------|
C#|------------------------------------------------------|


C#|---------------------------------------------12--------|
G#|-------------------------------15^-15^--15^----15p12---|
E |---14p12--------------------------------------------14-|
B |--------14-14p12---------------------------------------|
F#|----------------14-10h12--10---------------------------|
C#|------------------------12-----------------------------|


C#|------------------12---------------12------------------|
G#|----------------12---15^-15^--15^----15p14-------------|
E |---14p12---12h14--------------------------14p12-12-----|
B |--------14---------------------------------------------|
F#|-------------------------------------------------------|
C#|-------------------------------------------------------|


C#|-------------------------------------------------------|
G#|-------------------------------------------------------|
E |-------------------------------------------------------|
B |---14p12-12--------------------------------------------|
F#|------------14p12-10-----------------------------------|
C#|--------------------12---------------------------------|





03:13
C#|----------------------------------------------------|
G#|----------------------------------------------------|
E |----------------------------------------------------|
B |----------------------------------------------------|
F#|----14---10-9--8------------------------------------|
C#|----12---8--7--6------------------------------------|x3


03:22
C#|----------------------------------------------------|
G#|----------------------------------------------------|
E |----------------------------------------------------|
B |---4--4---xx-9-8-7---7-/9---------------------------|
F#|---2--2---xx-7-6-5---5-/7---------------------------|
C#|----------------------------------------------------|x14


04:08
C#|----------------------------------------------------|
G#|----------------------------------------------------|
E |----------------------------------------------------|
B |----------------------------------------------------|
F#|---9------7--12---16xx-9----------------------------|
C#|---7------5--10---14xx-7----------------------------|x2


04:21 fades out
C#|----------------------------------------------------|
G#|----------------------------------------------------|
E |----------------------------------------------------|
B |---4--4---xx-9-8-7---7-/9---------------------------|
F#|---2--2---xx-7-6-5---5-/7---------------------------|
C#|----------------------------------------------------|




email me if there is a need.

comments
print report bad tab
4 comments total. Showing first comments.
0 reply
SirVulture wrote on June 15 2007, 03:58 pm

yep this tab is right. personally i play the intro riff on the 6trh and 5th strings but that just personal preference. this is right though good job 5 stars from me.

0 reply
orange_juice wrote on November 4 2007, 03:58 pm

great tab but why bother tuning it down when u could just play a few frets lower? theres no open E in the whole song, i think

0 reply
KirK_H@mmeT wrote on January 3 2008, 09:17 am

tuning down is essential in black sabbath songs like this for the tone. There are a lot of people that say tuning down
(say to drop D) is a cop-out, but you'd never get the tone that Tool get without using drop D. KirK_H@mmeT

I want to post or [tab]
guest
You may want to rate the tab now too:
select rating
Please do not post tabs as comments. Select "correction" instead!