Oops, an error
Loading. Please wait.

Symptom Of The Universe Tab

version 1
version 1

Intro

Whole song

Interactive

11,555 views 6 this week
5 commentsread comments
1 2 3 4 5
worth learning
x 5
add to favorites
launch autoscroll
font size
0
reset
how to read this tab
guitar tuner
Autoscroll
slow
fast
+/-
esc
set tempo
stop
Help us to improve Ultimate-Guitar.com Take our survey!
×
I am positive that this if the absolute right tab for symptom of the universe,
i got it from a tony iommi site.

|--- x8 |--- x2 |------ x1  |---------- x2
|---    |---    |------     |----------
|---    |---    |-7----     |-2--------
|---    |-6-    |-5--6-     |-0--3--2--
|-5-    |-4-    |----4-     |----1--0--
|-3-    |---    |------     |----------

and that's about it, any questions, e-mail me at black_sabbath2@hotmail.com
Suggest correction
comments
print report bad tab
5 comments total. Showing first comments.
+1 reply
purplehaze67 50 wrote on February 6 2003, 12:00 am

ok it goes from 0:00 to 1:58 like this......first and foremost...tune down a step and a half.

----------------------------------------
----------------------------------------
------------------------------------7---
---------------6----6---------------5--6
---------------4----4------------------4
-3-3-3-3-3-3-0---------3-3-3-3-3-3-0-----pm...........] pm...........]
there is another 6 4 at end above

1:58 to 2:20

----------------------------------------
----------------------------------------
--2---3---0---2----0--------------------
---------------3-----2--3--0--2-3--0-5--0------------------------------------3--
----------------------------------------
thats how i have it....should be right

0 reply
purplehaze67 50 wrote on February 6 2003, 12:00 am

well i screwed that correction up just back up the pm's to just before the 6 4 and it should be right....not much room to write tabs in here

0 reply
leander m. 1,421 wrote on February 9 2003, 12:00 am

Hey man can you make the whole tab of song N.I.B. or the Solo only?please(phew!!)

guest
You may want to rate the tab now too:
select rating
Wanna post a correction for this tab? Suggest correction