Oops, an error
Loading. Please wait.

Symptom Of The Universe Tab

version 4
version 4

Whole song

Interactive

8,142 views 12 this week
1 commentread comment
1 2 3 4 5
accurate
x 3
add to favorites
launch autoscroll
font size
0
reset
how to read this tab
guitar tuner
Autoscroll
slow
fast
+/-
esc
set tempo
stop
Help us to improve Ultimate-Guitar.com Take our survey!
×
Author
Difficulty
intermediate
          Symptom of the universe              Black Sabbath
---------------------------------------------------------------------------- 
Tabbed by:   bsidegrve
Email:

Tuning:  some use half step down tuning......I like using standard tuning

e|---------------------------------------------------------------------------|
B|---------------------------------------------------------------------------|
G|-----------------------------------------------------4---------------------|
D|---------------------3---------3---------------------2----3-----(2-times)--|
A|----2-2-2-2-2-2-2----1---------1--2-2-2-2-2-2-2-----------1----------------|
E|----0-0-0-0-0-0-0-----------------0-0-0-0-0-0-0----------------------------|

e|---------------------------------------------------------------------------|
B|---------------------------------------------------------------------------|
G|---------------------------------------------------------------------------|
D|------7-------3-------2-----------------------------------------(2-times)--|
A|------5-------1-------0----------------------------------------------------|
E|---------------------------------------------------------------------------|

e|---------------------------------------------------------------------------|
B|---------------------------------------------------------------------------|
G|---------------------------------------------------------------------------|
D|------------4--5-----4------------------------------------------(4-times)--|
A|------------------7-----5--7--4--5-----4---------7-------------------------|
E|-----2------------------------------7-----5--7---5-------------------------|

e|---------------------------------------------------------------------------|
B|---------------------------------------------------------------------------|
G|-------------------------------------------2-------------------------------|
D|-----------------------------1-2-1-2-4-2-2---3-2----------------(4-times)--|
A|----2--2222-2--2222---2-4-2------------------------------------------------|
E|---------------------------------------------------------------------------|

e|---------------------------------------------------------------------------|
B|---------------------------(riff under the solo)---------------------------|
G|----------------------------------------------------------------(4-times)--|
D|---------222222222222-------4-44444--44444--44444--44-4--------------------|
A|---------000000000000-------2-22222--22222--22222--22-2--------------------|
E|---------------------------------------------------------------------------|

e|---------------------------------------------------------------------------|
B|---------------------------------------------------------------------------|
G|---------------------------------------------------------------------------|
D|------4-------(play then kinda slide it up the guitar to)---11-------------|
A|------2--------->------->------->------->-------->-----------9-------------|
E|---------------------------------------------------------------------------|

e|-------------2------------5--5------4-4--4---------------------------------|
B|-------------2-0--*-------5--5--*---4-4--4---------------------------------|
G|-------------2-0--*-------5--5--*---4-4--4---------------------------------|
D|---------------------------------------------------------------------------|
A|--------------------------------( mellow part........my best guess )-------|
E|----0--2-------------------------------------------------------------------|

e|---------------------------------------------------------------------------|
B|---------------------------------------------------------------------------|
G|---------------------------------------------------------------------------|
D|---------------------------------------------------------------------------|
A|---------------------------------------------------------------------------|
E|---------------------------------------------------------------------------|


| /  slide up
| \  slide down
| h  hammer-on
| p  pull-off
| ~  vibrato
| +  harmonic
| x  Mute note
===============================================================================
Suggest correction
Give kudos to tab author, rate the tab!
1 2 3 4 5
comments
print report bad tab
1 comment total.
0 reply
JoshXR 20 wrote on February 3 2007, 03:38 pm

Forgot the palm muting and doesn't sound very accurate.

guest
You may want to rate the tab now too:
select rating
Wanna post a correction for this tab? Suggest correction