Oops, an error
Loading. Please wait.

The Mob Rules Tab

version 2
version 2

Whole song

Interactive

17,916 views 24 this week
no commentswrite comment
1 2 3 4 5
x 8
add to favorites
launch autoscroll
font size
0
reset
how to read this tab
guitar tuner
backing track
0:00
0:00
×
Best way to learn
"The Mob Rules"
Autoscroll
slow
fast
+/-
esc
set tempo
stop
Author
[Intro]
Eb|-------------------|-------------------|-----------------------|
Bb|-------------------|-------------------|-----------------------|
Gb|-------------------|-------------------|-----------------------|
Db|-2---2-2-----------|-2---2-2-----------|-2.-2----2-2-----------|
Ab|-0---0-0-3-0-3-0---|-0---0-0-3P0-3P0---|-0.-0----0-0-3P0-3P0-0-|
Eb|---3B------------3-|---3B------------3-|------3B---------------|

Eb|----------------|
Bb|-3--------------|
Gb|-2--------------|
Db|-0--0-----------|
Ab|----0-----------|
Eb|------3-3-2-3-2-|

[Verse 1, 2]
Eb|-------------------|-------------------|-----------------------|
Bb|-------------------|-------------------|-----------------------|
Gb|-------------------|-------------------|-----------------------|
Db|-2-2--2-2----------|-2---2-2-----------|-2.-2----2-2-----------|
Ab|-0-0--0-0-3P0-3P0--|-0---0-0-3P0-3P0---|-0.-0----0-0-3P0-3P0-0-|
Eb|----3B-----------3-|---3B------------3-|-----------------------|

Eb|--------------|
Bb|-3.-----------|
Gb|-2.-----------|
Db|-0.-----------|
Ab|--------------|
Eb|----3-3-2-3-2-|

Eb|----------------------|---|-----------------------|
Bb|----------------------|---|-----------------------|
Gb|----------------------|---|-----------------------|
Db|-2.-2---2-2-----------|---|-2.-2----2-2-----------|
Ab|-0.-0---0-0-3P0-3P0---|---|-0.-0----0-0-3P0-3P0-0-|
Eb|------3B------------3B|---|------3B---------------|
 
       USE W/BAR WITH NOTES IN ()(THAT GOES WITH ALL NOTES IN () ).
Eb|-------------------------|
Bb|-3--(3)-(3)-(3)-(3).-(3)-|
Gb|-2--(2)-(2)-(2)-(2).-(2)-|
Db|-0--(0)-(0)-(0)-(0).-(0)-|
Ab|-------------------------|
Eb|-------------------------|

[Pre-Chorus]
Eb|----------------------------------------------|
Bb|------7-(7)-(7)-(7)-(7)-(7)-(7)-(7).----------|
Gb|-9--9-7-(7)-(7)-(7)-(7)-(7)-(7)-(7).----------| (x2)
Db|-9--9-7-(7)-(7)-(7)-(7)-(7)-(7)-(7).----------|
Ab|-7--7-7-(7)-(7)-(7)-(7)-(7)-(7)-(7).----------|
Eb|-0------------------------------------------0-|
                                                       
Eb|------------------------|--------------|------------------------|
Bb|------7-(7)-(7)-(7)/-10-|-(10)~~~~~~~~~|------------------------|
Gb|-9--9-7-(7)-(7)-(7)/-10-|-(10)---------|------------------------|
Db|-9--9-7-(7)-(7)-(7)/-10-|-(10)---------|-(0)----(0)---(0)-(0).--|
Ab|-7--7-7-(7)-(7)-(7)/----|--------------|------------------------|
Eb|------------------------|--------------|------------------------|

[Chorus]                       [Verse 2]
Eb|-----------------------|--|-----------------------|--------------|
Bb|-----------------------|--|-----------------------|-3.-----------|
Gb|-----------------------|--|-----------------------|-2.-----------|
Db|-2.-2----2-2-----------|--|-2.-2----2-2-----------|-0.-----------| (x2)
Ab|-0.-0----0-0-3P0-3P0---|--|-0.-0----0-0-3P0-3P0-0-|--------------|
Eb|------3B-------------3-|--|------3B---------------|----3-3-2-3-2-|

[Solo]
Eb|-----------|-------------------------------------|-------------------|
Bb|-13B-~~~~~-|-13-13\10----10-13-10-10-------------|-------------------|
Gb|-----------|----------12-------12B---12-10-12-12-|-10----------------|
Db|-----------|-------------------------------------|----12-10----12\10-|
Ab|-----------|-------------------------------------|----------12-------|
Eb|-----------|-------------------------------------|-------------------|

Eb|----------------------------|----------------------------------|
Bb|----------------------------|----------------------------------|
Gb|-10-------------------------|----------------------------------|
Db|----12-10-10-12\10-10-12-10-|----10----------10-------8--------|
Ab|----------12-------12-------|-12----12-10-12----/8-10---8\7----|
Eb|----------------------------|-------------------------------10-|

Eb|---------------------------------12------------------------------------|
Bb|---------------------------10-13----13-10-10-13-10---------------------|
Gb|---------------------10-12-------------------------12-12-10\9-------10-|
Db|---------------10-12------------------------------------------12-12----|
Ab|----7--8-10/13---------------------------------------------------------| 
Eb|--8--------------------------------------------------------------------|

Eb|---------------------------------|-----------|
Bb|---------------------------------|-----------|
Gb|-------10----10-12-12-12-10----10|-----------|
Db|----------12----------------12---|-----------|
Ab|-10-12---------------------------|-----------|
Eb|---------------------------------|-10---10\0-|

Eb|-------------------------------------|----------------------------|
Bb|-----10-13-10-10-----10-13-10-----10-|-13-10-------10-13-10-13-10-|
Gb|-12-----------12--12----------12-----|-------12-12----------------|
Db|-------------------------------------|----------------------------|
Ab|-------------------------------------|----------------------------|
Eb|-------------------------------------|----------------------------|

Eb|-----------------|----------------------12-------------------------------|
Bb|----10--------10-|----------------10-13----13-10----10-13-10-10-10-------|
Gb|-12----10--12----|-12-10----10-12----------------12----------------12-10-|
Db|-----------------|-------12----------------------------------------------|
Ab|-----------------|-------------------------------------------------------|
Eb|-----------------|-------------------------------------------------------|

Eb|--------------------------------------|------------|
Bb|--------------------------------------|------------|
Gb|-----------10-------------------------|------------|
Db|-12--10-12----12-10-------------------|------------|
Ab|--------------------10-12-8-10-8\7----|------------|
Eb|-----------------------------------10-|-10-----10\-|

Eb|---------------------------|------------------------------|
Bb|---------------------10----|-------------10---------------|
Gb|-10---------10-10----10----|-------------10-------10-12---|
Db|----12-12-X-------12----12-|-12-10----10----12-12---------|
Ab|---------------------------|-------12---------------------|
Eb|---------------------------|------------------------------|

Eb|-----------------------------|-----------------------------10----|
Bb|-----------------------------|-----------------------10-13----13-|
Gb|-10--------------------------|---------10\9----10-12-------------|
Db|---12----10----------10------|----10--------12-------------------|
Ab|------12----12-12-10-12-8-10-|-12----X---------------------------|
Eb|-----------------------------|-----------------------------------|



************************************

| b    Bend
| (n)  Ghost note
| \    Slide down
| ~    Vibrato
| /    Slide up

************************************
Suggest correction
comments
print report bad tab
guest
You may want to rate the tab now too:
select rating
Wanna post a correction for this tab? Suggest correction