Oops, an error
Loading. Please wait.

The Wizard Bass Tab

version 4
version 4

Whole song

Interactive

1,824 views 9 this week
no commentswrite comment
1 2 3 4 5
please rate
add to favorites
launch autoscroll
font size
0
reset
guitar tuner
Autoscroll
slow
fast
+/-
esc
set tempo
stop
Help us to improve Ultimate-Guitar.com Take our survey!
×
Contributor
spaceyhippie 1,216
Black Sabbath
The Wizard
bass tab

  0.20         intro
|--------------------------------|--------------------------------|
|--------10----------------------|----10-=10----^---------10--^---|
|12--------------12--\\----------|------------1210--^-10----1210--|
|--------------------------------|----------------1012------------|

|--------------------------------|--------------------------------|
|--------10----------------------|----10-=10----^---------10--^---|
|12--------------12--\\----------|------------1210--^-10----1210--|
|--------------------------------|----------------1012------------|

|-------------------------^------|--------------------------------|
|--------10-------------10-12-10-|----10-=10----^---------10--^---|
|12--------------12--\\----------|------------1210--^-10----1210--|
|--------------------------------|----------------1012------------|

|--------------------------------|--------------------------------|--
|--------10----------------------|----10-=10----^---------10--^---|----
|12--------------12--\\----------|------------1210--^-10----1210--|12----
|--------------------------------|----------------1012------------|--------

  0.54         theme 1
|----------------|----------------|----------------|----------------|------------`---|
|----10----------|--X=X-------X---|----10----------|--X=X-------X---|----------------|
|12------12-\\---|------TX--X--TX-|12------12-\\---|------TX--X--TX-|----------------|
|----------------|--------XT------|----------------|--------XT------|12--------------|

  1.07         verse 1
|--------------------------------|--------------------------------|
|----------------------------18--|--------------------------------|x
|--------------------------18----|--------------------------------|6
|17--17---=--------------18------|17------=-----------------------|

  1.35         chorus 1
|--------------------------------|
|--------------------------------|x
|15-14--12--12-------------------|4
|--------------------------------|

  1.45         theme 2
|----------------|----------------|----------------|----------------|
|----10----------|--X=X-------X---|----10----------|--X=X-------X---|
|12------12-\\---|------TX--X--TX-|12------12-\\---|------TX--X--TX-|
|----------------|--------XT------|----------------|--------XT------|

|----------------|----------------|----------------|----------------|------------`---|
|----10----------|--X=X-------X---|----10----------|--X=X-------X---|----------------|
|1212----12-\\---|------TX--X--TX-|12------12-\\---|------TX--X--TX-|12--------------|
|----------------|--------XT------|----------------|--------XT------|----------------|

  2.07         verse 2
|--------------------------------|--------------------------------|
|----------------------------18--|--------------------------------|x
|--------------------------18----|--------------------------------|6
|17--17---=--------------18------|17------=-----------------------|

  2.35         chorus 2
|--------------------------------|
|--------------------------------|x
|15-14--12--12-------------------|4
|--------------------------------|

  2.45         solo
|----------------|----------------|----------------|----------------|
|----------------|----------------|--------------18|----------------|
|0-0---------1---|0---------------|0-0----------18-|----------------|
|----------------|----------------|------------18--|17--------------|

|----------------|----------------|----------------|----------------|
|----------------|----------------|--------------18|----------------|
|-------------8--|----------------|0-0----------18-|----------------|
|5-5---------6-6-|5---------------|------------18--|17--------------|

|----------------|----------------|----------------|----------------|
|----------------|----------------|--------------18|----------------|
|-------------8--|----------------|-------------18-|----------------|
|5-5---------6-6-|5---------------|1717--------18--|17--------------|

|----------------|----------------|----------------|----------------|
|--------------18|----------------|--------------18|----------------|
|-------------18-|----------------|-------------18-|----------------|
|1717--------18--|17--------------|1717--------18--|17--------------|

  3.24         verse 3
|--------------------------------|--------------------------------|
|----------------------------18--|--------------------------------|x
|--------------------------18----|--------------------------------|4
|17--17---=--------------18------|17------=-----------------------|

  3.43         chorus 3
|--------------------------------|
|--------------------------------|x
|15-14--12--12-------------------|4
|--------------------------------|

  3.53         outro
|------------..--|.---------------|----------------|----------------|
|----10----------|--X=X-------X---|----10------XTX-|--X=X-------X---|
|12------12-\\---|------TX--X--TX-|12------12-\----|------TX--X--TX-|
|----------------|--------XT------|----------------|--------XT------|

|----------------|----------------|----------......|.---------------|
|----10----------|--X=X-------X---|----10----------|--X=X-------X---|
|12------12-\\---|------TX--X--TX-|12------12-\\---|------TX--X--TX-|
|----------------|--------XT------|----------------|--------XT------|

                                  |----------------|----------------|--
                                  |--X=X-------X---|--X=X-------X---|----
                                  |------TX--X--TX-|------TX--X--TX-|------
                                  |--------XT------|--------XT------|12------


standard tuning (EADG)

| /  slide up
| \  slide down

| .   incidental note (usually open string)
| ^   pre-struck note (hammer-on, pull-off)
| =   rest

| X   10
| E   11
| T   12
| H   13
| F   14


display in fixed-width font
one space ("-") = 1/16 note

tabbed by
spaceyhippie
dudeman.net/jam

Suggest correction new What's this?
You can suggest a correction to this tab. Community and Mods will review your correction and vote to approve or reject it.
comments
We did not receive enough feedback on this tab! Please rate:
print report bad tab
1 2 3 4 5
guest
You may want to rate the tab now too:
select rating
Please do not post tabs as comments. Select "correction" instead!