Oops, an error
Loading. Please wait.

Tomorrows Dream Tab

version 3
version 3

Whole song

Interactive

10,374 views 15 this week
3 commentsread comments
1 2 3 4 5
accurate
x 6
add to favorites
launch autoscroll
font size
0
reset
how to read this tab
guitar tuner
Autoscroll
slow
fast
+/-
esc
set tempo
stop
Help us to improve Ultimate-Guitar.com Take our survey!
×
Author
Difficulty
intermediate
Band:  Black Sabbath
Album: Vol.4
Song:  Tomorrow's Dream

Transcribed By: thelordofguitar
Email: guitarmaster_9@hotmail.com

.  - palm mute           /  - slide up to
\  - slide down to       ~  - vibrato
h  - hammer on           b  - Bend
p  - pull off            Suffixes for bend
t  - tap                 f  - full bend    h - half bend
ph - pinched harmonic    q  - quarter bend t - tap bend
*  - see comment         ^  - Hold bend    r release bend
x  - Stuccatto           ~  - vibrato bend
,  - slight palm mute    () - ghost note, sustained note
"  - tremolo note        <> - Trill
.
.- Repeat

Tuning Db Gb Cb Fb Ab Db
*This note is done just once at the beginning.

(intro)/(Bridge)               (verse)
|-----------------------------|--------------------------|
|-----------------------------|--------------------------|
|.---------------------------.|.-----------------------.-|
|.----7--9---9-7-9-7-9---777-.|.-----999------77--77---.-|
|--9--5--7---7-5-7-5-7---555--|------777ect.--55--44-----|
|--7--------------------------|(5q)*---------------------|
(Bridge After Verse)
|----------------------------------------------------|
|----------------------------------------------------|
|----------------------------------------------------|
|-7-7-7----------------------------------------------|
|-5-5-5----------------------------------------------|
|--------5-7/8\7--5-7/8\7--5-7/8\7-------------------|
(Slow Part)
|--------------------------------------|
|-------7-------------7h8p7---7h8p7----|
|.----7---7-------7---------7-------7--|
|.--7-------7---7---7------------------|
|-5-----------5------------------------|
|--------------------------------------|
(Slow Part Cont.)
|---------------------------------------------|
|-------10-----------10h11p10----10h11p10-----|
|-----10--10-----10-----------10----------10.-|
|---10------10-10--10-----------------------.-|
|--8----------8-------------------------------|
|---------------------------------------------|
(SOLO!!!)
|----------------------------------------------------|
|----------------------------------------------------|
|-----------------------------------------------7-9~-|
|-----5-5---------5-5----------5-5--------5-7/9------|
|-5h7-----7~--5h7-----7~---5h7-----7--5h7------------|
|----------------------------------------------------|

|------------------------------------------------------|
|------------------------------------------------------|
|-9bf-7h9p7-------------------------------7------------|
|-----------9-7\5--------5-5--------5-7/9--9p7\5-7-5---|
|-----------------7--5h7-----7~-5h7------------------7-|
|------------------------------------------------------|

|--------------|
|--------------|
|--------------|
|-----5-5------|
|-5h7-----7~---|
|--------------|

this is pretty much it. Just listen to the song to figure out the order
Suggest correction
What's this?
You can suggest a correction to this tab. Community and Mods will review your correction and vote to approve or reject it.
comments
print report bad tab
3 comments total.
0 reply
#1winner 10 wrote on March 1 2008, 08:50 pm

really good tab. exept the bridge slide part is a little off.

-1 reply
Lemmy_Burton 71 wrote on July 27 2008, 07:51 am

Yeah, the bridge just goes 6p5p3 6p5p3 5p3
That should be close enough just play with it

0 reply
Rebel Scum 694 wrote on March 28 2014, 06:55 pm

I think the key is off. The intro chords to my ear is A5 C5 D5 not B5 D5 E5
and the bridge part should be a C5 not a D5

guest
You may want to rate the tab now too:
select rating
Please do not post tabs as comments. Select "correction" instead!