Oops, an error
Loading. Please wait.

Turn Up The Night Tab

version 1
version 1

Whole song

Interactive

9,084 views 12 this week
no commentswrite comment
1 2 3 4 5
please rate
add to favorites
launch autoscroll
font size
0
reset
how to read this tab
guitar tuner
Autoscroll
slow
fast
+/-
esc
set tempo
stop
Help us to improve Ultimate-Guitar.com Take our survey!
×
Author
Title: Turn Up The Night
Artist: Black Sabbath
Transcribed By: Sam Brooking


e|-----------------------------------------------------------|
B|-----------------------------------------------------------|
G|-----------------5----7\----------------------5------------|
D|-----------------5----7\------------------3-2-5------------|
A|-3-3-3-3-3-3-3-3-3-(0)5\--3-3-3-3-3---3-5------------------|
E|-1-1-1-1-1-1-1-1----------1-1-1-1-1-5----------------------|

Verse 1 and 3

"a rumble of thunder..."
e|----------------------------------------------------------|
B|----------------------------------------------------------|
G|------------------8-------8-------------------------------|
D|------------------8---------------------------------------|
A|-3333333333333333-6-5h6-6----6-6-5------------------------|
E|-1111111111111111-----------------6-----------------------|

Verse 2

"no rhyme or reason..."
e|----------------------------------------------------------|
B|----------------------------------------------------------|
G|----------------------------------------------------------|
D|------------------8--8--8--8--8--8------------------------|
A|-3333333333333333-8--8--8--8--8--8------------------------|
E|-1111111111111111-6--6--6--6--6--6------------------------|


e|----------------------------------------------------------|
B|----------------------------------------------------------|
G|------------------8--8--8--8--8--8--7--7--7--7--7--7------|
D|------------------8--8--8--8--8--8--7--7--7--7--7--7------|
A|-3333333333333333-6--6--6--6--6--6--5--5--5--5--5--5------|
E|-1111111111111111-----------------------------------------|

Fill
e|----------------------------------------------------------|
B|-13^--^13-10h13-----13p10---------------------------------|
G|----------------12^-------12p10\9-------------------------|
D|----------------------------------12----------------------|
A|-------------------------------------12\10-8--------------|
E|---------------------------------------------10--8^-------|

e|-----------------------------------------------------------|
B|-----------------------------------------------------------|
G|-----------------------------------------------------------|
D|---------------------------10------------------------------|
A|-10p8------10/12\10-8--/12----12--10p8\7-8p7---------------|
E|------10-8-----------------------------------8/10----------|end fill


"Turn up the night..."
e|-----------------------|-----------------------------------|
B|-----------------------|-----------------------------------|
G|-----------------3-----|-----------------------5--3--------|
D|-----------------3-----|-----------------------5--3--------|
A|-3-3-3-3-3-3-3-3-1-----|-------3-3-3-3-3-3-3-3-3--1--------|
E|-1-1-1-1-1-1-1-1-------|-------1-1-1-1-1-1-1-1-------------|

e|-----------------------|-----------------------------------|
B|-1013101310131013-13^--|-----1013101310131013--------------|
G|-----------------------|----------------------12^----------|
D|-----------------------|-----------------------------------|
A|-----------------------|-----------------------------------|
E|-----------------------|-----------------------------------|

"it feels so right..."
e|----------------------------------------------------------|
B|----------------------------------------------------------|
G|-7---7-7-7--10-----5----5------5-7------------------------|
D|-7---7-7-7--10-----5----5------5-7------------------------|
A|-5---5-5-5---8-----3----3--(0)-3-5----5-3-----------------|
E|------------------------------------------5-3-------------|

"like a fire  needs a spark to burn..."
e|----------------------------------------------------------|
B|----------------------------------------------------------|
G|----------------------------------------------------------|
D|-5-6-7-8-9-10-11-12-13-14-15-16\--------------------------|
A|-3-4-5-6-7--8--9-10-11-12-13-14\--------------------------|
E|----------------------------------------------------------|

**1**
e|----------------------------------------------------------|
B|----------------------------------------------------------|
G|-7---7-7-7--10-----5----5------5-7------------------------|
D|-7---7-7-7--10-----5----5------5-7------------------------|
A|-5---5-5-5---8-----3----3--(0)-3-5----5-3-----------------|
E|------------------------------------------5-3-------------|
**2**
e|----------------------------------------------------------|
B|----------------------------------------------------------|
G|-7---7-7-7--12-----5----5------5-7------------------------|
D|-7---7-7-7--12-----5----5------5-7------------------------|
A|-5---5-5-5--10-----3----3--(0)-3-5----5-3-----------------|
E|------------------------------------------5-3-------------|
Suggest correction
Give kudos to tab author, rate the tab!
1 2 3 4 5
comments
print report bad tab
guest
You may want to rate the tab now too:
select rating
Please do not post tabs as comments. Select "correction" instead!