Oops, an error
Loading. Please wait.

Under The Sun tab

version 3
version 3

Whole song

Interactive

24,258 views 51 this week
11 commentsread comments
1 2 3 4 5
x 12
add to favorites
×
Save as Personal and add changes to this tab that will be seen only by you. Learn more ›
×
You can save this tab as Personal to edit and correct it or add notes. All changes will be seen only by you. Learn more »
launch autoscroll
font size
0
reset
how to read this tab
guitar tuner
backing track
0:00
0:00
edit
Autoscroll
slow
fast
+/-
esc
set tempo
stop
Band-Black Sabbath
Tabber-Tommy Abbate
User Name-Black§abbath

this is a great song, buy the cd or something, its very very good and this song can get 
good with rhythm in guitar playing.

  [Intro]
C#|----------------|----------------|----------------|----------------|
G#|----------------|----------------|----------------|----------------|
E |----------------|----------------|----------------|----------------| x3
B |----------------|----------------|----------------|----------------|
F#|2-----2-2---9---|8-----------12--|11--------------|10------9-------|
C#|0-----0-0---7---|6-----------10--|9---------------|8-------7-------|

  [Verse Riff]
C#|--------------------------|--------------------------|
G#|--------------------------|--------------------------|
E |--------------------------|--------------------------|
B |--------------------------|--------------------------|
F#|-------9p7-9-10p9p7-9p7---|-------9p7-9-10p9p7-9p7---|
C#|-0---0--------------------|-0---0--------------------|

  [Verse ending]
C#|-------------------------|-------------------6----------|-----------------|
G#|-------------------------|-----6-6h7p6-6-6-7--/11----11-|/12-------\------|
E |-------------------5---6-|-6-7--------7-----------11----|-----------------|
B |-------5-----5-7-9---7---|------------------------------|-----------------|
F#|-5-7-9---7-9-------------|------------------------------|-----------------|
C#|-------------------------|------------------------------|-----------------|


everyday just comes and goes, life is one long overdose...
A5                      G5    A5                     G5
people hiding their real faces, each one running their rat races...
B5                      A5    B5                     A5
and so on....(during solo)
C#5                     B5    C#5                    B5
and so on....(during solo)
D5                      C5    D5                     C5


  [Solo]
C#|-------------------------------------------9-----------------|
G#|---------------------------------------12^---12--------------|
E |---------------------------9----9-9^-9-----------------------|
B |---------9h11-9----9-10-11---11------------------------------|
F#|-9-10h11--------11-------------------------------------------|
C#|-------------------------------------------------------------|

C#|------------------------------------------------------------------------|
G#|-9----------------------------------------------------------------------|
E |---12-11p9-11p9----9-11-9----9-----------9----9-9-11^9----11-11-9----9--|
B |----------------11--------11---11-9--/11---11----------11---------11----|
F#|------------------------------------------------------------------------|
C#|------------------------------------------------------------------------|

C#|---------------------------------------10--------------------|
G#|---r-------------------------------13^----13-9---------------|
E |-10^9----9---------------10-10h11--------------131210--------|
B |------11---11---11////12------------------------------12p10--|
F#|-------------------------------------------------------------|
C#|-------------------------------------------------------------|

C#|------------------------------------------------------------|
G#|------------------------------------------------------------|
E |---10-12-10--10----------10----10-12^-12^-12p10--10-12-10---|
B |-12--------12--12-10-/12----12-----------------12--------12-|
F#|------------------------------------------------------------|
C#|------------------------------------------------------------|

C#|------------------------------------------------------------|
G#|------------------------------------------------------------|
E |-10-----------10--10-12^-12--12p10--10-12-10--10------------|
B |---12p10-10h12--12----------------12--------12--12-10--10---|
F#|-----------------------------------------------------12-----|
C#|------------------------------------------------------------|

C#|------------------------------------------|
G#|-10--10---13--13--------------repeat-3-x--|
E |-12^-12^--15^-15^\x(5)/x(12)--------------|
B |------------------------------------------|
F#|------------------------------------------|
C#|------------------------------------------|

2nd half:
                  [Riff B]
C#|--------------|-----------------------|-----------------------|------------------|-----------------------|
G#|--------------|-----------------------|-----------------------|------------------|-----------------------|
E |----4---------|-------------4---------|-------------4---------|------------------|-------------4---------|
B |------5-4h5p4-|---------------5-4h5p4-|---------------5-4h5p4-|------------------|---------------5-4h5p4-|
F#|--------------|7----7---7-7-----------|5----5---5-5-----------|3----3----3--5--3-|2----2---2-2-----------|
C#|--------------|-----------------------|-----------------------|------------------|-----------------------|
           \ 3 /                   \ 3 /                   \ 3 /                                      \ 3 /
Repeat Riff B another 7 times

  repeat riff below, slowing every time you play it.
C#|-------------------------------------------------||------------|
G#|-------------------------------------------------||-last time--|
E |--9-9-9-9----7-7-7-7-----------------------------||------------|
B |--9-9-9-9----7-7-7-7----10-10-10-10--------------||-----2------|
F#|--7-7-7-7----5-5-5-5----10-10-10-10--5/7-5-------||-----2------|
C#|------------------------8--8--8--8---------7\5-3-||-----0------|


Legend
| /  slide up
| \  slide down
| h  hammer-on
| p  pull-off
| ~  vibrato
| +  harmonic
| x  Mute note

            
            
Suggest correction
Creating personal tab
Creating personal tab
You can edit any tab online and save it as your Personal.

You can edit, replace or remove any tab part or add personal notes – all changes will be seen only by you.

Personal tabs can be accessed anytime from any device, even offline.
Learn more »
comments
print report bad tab
11 comments total. Showing first comments.
0 reply
The Wroths 10 Dec 17, 2006 09:33 PM

thats a good tab man. thanx

0 reply
Caligaris27 10 Apr 29, 2007 08:29 PM

good jub on this tab. Long live Sabbath

0 reply
jimzer 120 Aug 28, 2007 12:22 AM

bloody awesome tab mate

guest
You may want to rate the tab now too:
select rating
Wanna post a correction for this tab? Suggest correction