Oops, an error
Loading. Please wait.

War Pigs Tab

version 1
version 1
410,841 views 1,191 this week
16 commentsread comments
1 2 3 4 5
accurate
x 41
add to favorites
launch autoscroll
font size
0
reset
how to read this tab
guitar tuner
Autoscroll
slow
fast
+/-
esc
set tempo
stop
Help us to improve Ultimate-Guitar.com Take our survey!
×
Author
-------------------------------------------------------------------------------
                             War Pigs - Black Sabbath
-------------------------------------------------------------------------------

By:Jesse gardner


[Intro]

e|------|--------------------------|--------------------------|
B|------|--------------------------|--------------------------|
G|------|--------------------------|--------------------------|
D|-9----|--9--9-9\-7~~-7/9\7/9--9--|-9--9\7-7-7/9--9-9\7-7----|
A|-7----|--7--7-7\-----5/7\5/7--7--|-7--7\5-5-5/7--7-7\5-5----|
E|------|--------------------0-----|--------------------------|


[Verse 1]   

                (Fills for Verse 1)
e|-----|      e|------------|-------|-12\---|
B|-----|      B|------------|-------|-12\---|
G|-7/9-|      G|--15p12---12|-6tr7--|-12\---|
D|-7/9-|      D|--------15--|-------|-------|
A|-5/7-|      A|------------|-------|-------|
E|-----|      E|------------|-------|-------|


[Bridge]

e|---------------------|--------|------|------|
B|---------------------|-8^(10)-|------|-8tr9-|
G|---------------------|--------|-6tr7-|------|
D|-12-11--10------7/9--|--------|------|------|
A|-10--9--8---7---5/7--|--------|------|------|
E|---------------------|--------|------|------|


[Bridge 2]

e|---------12\---------------|
B|---------12\---------------|
G|---------12\---------------|
D|---------------------------|
A|---------------------------|
E|--0-0-0-0------0-0-0-3^(4)-|
   ........      .....


[Verse 2]

e|-----------------------------|
B|-----------------------------|
G|-----------------------------|
D|----------2p0---------2p0----|
A|-----------------------------|
E|--0-0-0-0-----0-0-0-------3^-|
    .......     ..... 


[Interlude]
 
e|----------------------------------------------------------------------|
B|----------------------------------------------------------------------|
G|----------------------------------------------------------------------|
D|----------------------------------------------------------------------|
A|-11h12---12p11---11\7---7\5---5h7-7-5h7-7/11/12-11h12---12p11---12h14-|
E|-------0-------0------0-----0-------------------------0-------0-------|

Solo-Stick to the E pentatonic(12th fret) and you should get it. Just a lot of slurs 
and bends. I know it but it would take to long to write out. Its pretty easy to figure 
out though.


[Outro]

e|----------------------|---------|---------|
B|----------------------|---------|---------|
G|--------7-------7-----|---------|---------|
D|----9-------9-------9-|-9-------|-9--11-9-|
A|--7---7---7---7---7---|-7--9-12-|-7--9--7-|
E|----------------------|----7-10-|---------|

Keep playing the above riff dropping it down two frets at a time until the end of the 
song, which has a really sucky ending, and I like to end on an E5.

Progression:
Intro Riff
Verse 1 Riff x7
Verse 1 Riff w/fills x4
Bridge x4
Bridge 2 x4
Verse 2 Riff x8
Bridge 2 x4
Verse 2 Riff x8
Verse 1 Riff x1
Bridge x4
Interlude
Main Solo
Interlude
Intro Riff(a lot faster)
Verse 1 riff x7
Verse 1 riff w/fills x4
Bridge x4
Outro w/endings x4
Outro x4
Outro on 5th Fret x2
Outro on 3rd Fret x2
Solo
Outro
Suggest correction
comments
print report bad tab
16 comments total. Showing first comments.
0 reply
lespaul_power 90 wrote on May 6 2002, 12:00 am

When there is a ( ) it shows up as zeros on the tab. Thats supposed to mean "Insert Fill Here"

+1 reply
-Spiders- 121 wrote on January 7 2003, 12:00 am

dude its good, but u have the solo to make these tabs better cuz it looks like s**t from here.... and the outro/Lukes Wall is one of the best songs in this album u lazy a** b*****d!? thank god all the rest of the tabbers are not like this leaving the SOLO OUT and putting in a f***n patern my god ur lame......

+2 reply
JunctionP 30 wrote on January 14 2005, 12:00 am

shut it. its a accurate tab. cept its missing one part

A--7--9-10-9-10-9-9-5-----5/7--9-10-12-12--14--14
E----------------------7------------------------
then solo in key of e. but theres no need to trascribe it just improv

guest
You may want to rate the tab now too:
select rating
Please do not post tabs as comments. Select "correction" instead!