Oops, an error
Loading. Please wait.

War Pigs Tab

version 9
63,967 views 99 this week
10 commentsread comments
1 2 3 4 5
x 15
add to favorites
launch autoscroll
font size
0
reset
how to read this tab
guitar tuner
Autoscroll
slow
fast
+/-
esc
set tempo
stop
Help us to improve Ultimate-Guitar.com Take our survey!
×
Author
Artist: Black Sabbath
Song: War Pigs solo/Luke's wall
Paranoid 

Spiders
( I'm Writing down the solo cuz some people can't be bothored 
so i'm taken some of my time to right out the tabs for it.)

[Guitar 1]: Dist.
[Guitar 2]: Dist.
[Guitar 3]: Dist.

[Solo]
(Gtr.1)
e|-------|-------------------------------------------|
B|-------|-------------------------------------------|
G|-------|-------------------------------------------|
D|-------|-------------------------------------------|
A|-------|--11/12---12\11---11\7---7\5---5/7--7~~~~--|
E|--12\0-|--------0-------0------0-----0-------------|

e|---------------------------------------|
B|---------------------------------------|
G|---------------------------------------|
D|---------------------------------------|
A|--(7)~~~--5/7---7\5--7--7/11---11/12---|
E|--------------0--------------0-------0-|

e|------------------------------------------|
B|------------------------------------------|
G|------------------------------------------|
D|------------------------------------12h14-|
A|--12\11---11/12---12/14--14~~~~12h14------|
E|--------0-------0-------------------------|

                         1/4               full
e|-----------------------------------------------12-|
B|--------------------------------------------12----|
G|---------------------12b------------12--14b-------|
D|--14~~~~-------12h14----------12h14---------------|
A|---------12h14-----------12h14--------------------|
E|--------------------------------------------------|

[Gtr.1]
Full     Full       Full   Full               Full
e|----------12--------12----------------12--------------12------------|
B|-------12--------12-----15b----15b~~~----15--12--15b------15-15p12--|
G|---14b-------14b----------------------------------------------------|
D|--------------------------------------------------------------------|
A|--------------------------------------------------------------------|
E|--------------------------------------------------------------------|
                                                                                            
[Gtr.2]                                                               
    Full      Full       Full  Full              Full                                            
e|----------12--------12---------------12-----------------------------|
B|-------12--------12-----15b---15b~~~----15--12---------12----15p12--|
G|---14b-------14b---------------------------------14b----------------|
D|--------------------------------------------------------------------|
A|--------------------------------------------------------------------|
E|--------------------------------------------------------------------|
                                                                                                 
[Gtr.3]                                                                                 
e|--------------------------------------------------------------------|
B|--------------------------------------------------------------------|
G|--------------------------------------------------------------------|
D|--------------------------------------------------------------------|
A|--------------------------------------------------------------------|
E|--------------------------------------------------------------------|

[Gtr.1]                                         
                                                 Full   Full      Full
e|-----------------------------------------------------12-----15--15b----|
B|--15p12-----12---15p12----12----15p12-----12-----------15b~~-----------|
G|--------14-------------14-------------14-------14b---------------------|
D|-----------------------------------------------------------------------|
A|-----------------------------------------------------------------------|
E|-----------------------------------------------------------------------|
                                                                  
[Gtr.2]                                
                                      Full                             
e|-----------------------------------------------------------------------|
B|------12--15p12-----------15p12----------------------------------------|
G|--14--14-------14-----14--------14p12-14b----14-12h14p12---12----------|
D|--------------------------------------------------------14---14-14p12--|
A|---------------------------------------------------------------------14|
E|-----------------------------------------------------------------------|
                                                                        
[Gtr.3] 
                                 Full                       Full
e|--------------------------------------------------12----------15---15b-|
B|--15p12---15p12----12--15p12----12--15p12------------------------------|
G|-------14------14-----------14-----------14b---------------------------|
D|-----------------------------------------------------------------------|
A|-----------------------------------------------------------------------|
E|-----------------------------------------------------------------------|

[Gtr.1]
Full  Full    Full            Full
e|-------15b---15b-----15b---(15)-12-------------------------------------|
B|-----------------------------------15--12-----12--15--15p12------------|
G|------------------------------------------14b--------------15--14p12---|
D|--------------------------------------------------------------------14-|
A|-----------------------------------------------------------------------|
E|-----------------------------------------------------------------------|
                                                                        
[Gtr.2]
                                                  *Full               
e|-----------------------------------------------------------12----------|
B|---------------------------------------------------12---------15P12----|
G|--------------------------------------------12-14B------------------14-|
D|------12---------------------12---(12)h-14-----------------------------|
A|-----------14\12--10---12h14-------------------------------------------|
E|-----------------------------------------------------------------------|
                                                               
[Gtr.3]
                          Full       Full             Full                              
e|-----15b--(15)---12---------12-----------------------------------------|
B|---------------------15b~~~----15--12-------12------15p12--------------|
G|--------------------------------------14b---12------------14-14p12-----|
D|------------------------------------------------14------------------14-|
A|-----------------------------------------------------------------------|
E|-----------------------------------------------------------------------|

[Gtr.1]     
             Full
e|----------------------------------------------------|-------------------|
B|--15P12---------------------------------------------|-------------------|
G|--------14-14B---(14)P12----------------------------|-------------------|
D|---------------------------14P12---14---------------|-------------------|
A|--------------------------------------14----10H12-10|-------------------|
E|----------------------------------------------------|-10-12--12-12--(12)|
                                                                         
[Gtr.2]    
1/4                                                           
e|----------------------------------------------------|-------------------|
B|----------------------------------------------------|-------------------|
G|-12----(12)b----------------------------------------|-------------------|
D|----------------14p--12--12h14--14~~~~~~~~~---------|-------------------|
A|----------------------------------------------------|-------------------|
E|-------------------------------------------------12-|--0----------------|
 
[Gtr.3]  
        1/2                      Full  
e|---------------------------12-----------------------|-------------------|
B|-----------------------15----15--12-----------------|-------------------|
G|-12--14-14b--(14)p12--------------14b--(14)p12-14-12|-------------------|
D|----------------------------------------------------|-------------------|
A|----------------------------------------------------|-------------------|
E|----------------------------------------------------|-------------------|

[Gtr.3]
(Tacet)

[Gtr.1 & 2]
    Full  Full Full Full-----
e|----------------------------------------------------|
B|----------------------------------------------------|
G|---9b---9b---9b---9b-------(9)---7-------7--/--9~~~~|
D|-------------------------------------9--------------|
A|----------------------------------------------------|
E|----------------------------------------------------|

e|----------------------------------------------------|
B|----------------------------------------------------|
G|-(9)-\-7---------7-h-9~~~~~~------7--9~~~~~~-7--9---|
D|----------7-h-9-------------7-h-9-------------------|
A|----------------------------------------------------|
E|----------------------------------------------------|

   Full----  tr~~~~~~~~~~~~  Full----  tr~~~~~~~~~  Full----  tr~~~~~~~~~~
e|-------------------------------------------------------------------------|
B|-------------------------------------------------------------------------|
G|--9b---(9)-(7h9)-p7---------9b---(9) (7h9)-p7------9b---(9)-(7h9)-p7-----|
D|-------------------------------------------------------------------------|
A|-------------------------------------------------------------------------|
E|-------------------------------------------------------------------------|

(Repeat 2 more times the (7h9) p7 is a Trill if u noticed the tr on top,it's
when u hammer on and pull off continuously)

(after repeating twice play this)
  Full        Full Full Full Full
e|----------------------------------------------------|--------------------|
B|----------------------------------------------------|--------------------|
G|-9b---(9)----9b---9b---9b---9b--------(9)--9p7--7/9-|9~~~~~~~~~~~~~(9)/--|
D|----------------------------------------------------|--------------------|
A|----------------------------------------------------|--------------------|
E|----------------------------------------------------|--------------------|

e|--------------------------------------------|
B|--------------------------------------------|
G|--------------------------------------------|
D|--------------------------------------------|
A|-11/12--12--12\11---11\7---7\5---5/7~~~~~~--|
E|------------------0------0-----0------------|

              1/2------   1/2------   1/2------
e|-------------------------------------------------|
B|-------------------------------------------------|
G|-------------------------------------------------|
D|-------------------------------------------------|
A|----(6)-----6b-----(6)---6b----(6)---6b~~~-(6)---|
E|---------0----------0-----------0-----------0----|

          1/2------    1/2-------   1/2-------
e|-------------------------------------------------|
B|-------------------------------------------------|
G|-------------------------------------------------|
D|-------------------------------------------------|
A|---------6b-----(6)---6b-----(6)---6b-----(6)----|
E|--0---0----------0------------0------------0-----|

e|----------------------------------------------------------------|
B|----------------------------------------------------------------|
G|---9-------9--9--9-\-7--------7--7--7-/-9------9--9--9-\-7------|
D|---9-------9--9--9-\-7--------7--7--7-/-9------9--9--9-\-7--(7)-|
A|---7-------7--7--7-\-5--------5--5--5-/-7------7--7--7-\-5------|
E|---0--------------------------------0---------------------------|

(Then you go back to the verse and then when u play Verse 2/Interlude
Then you end it with a slide:)

e|--------------|
B|--------------|
G|--------------|
D|--------------|
A|--------------|
E|----12--\--0--|

(The you move into the song Luke's Wall (Outro of War Pig's))
(Luke's Wall)

[Gtr. 1 & 2]
e|-----------------------------------|-------------------------------|
B|-----------------------------------|-------------------------------|
G|-----------7-------------7-------7-|-----------7------------7----7-|
D|-----9------------9----------9-----|----9------------9----9----9---|
A|--7-----7------7------7------------|-7--7---7-----7--7-------------|
E|--------0------0------0------------|----0---0-----0-----0----------|

e|---------------------------------|---------------------------------|
B|---------------------------------|---------------------------------|
G|-9------------7------7---7---7---|-------------7------7--------7---|
D|-9-----9------7------7---7---7---|-----9-------x----------9--------|
A|-7-----9------5------5---5---5---|--7--7---7---7---7---------------|
E|-------7-------------------------|-----0---0-----------------------|

e|---------------------------------|---------------------------------|
B|---------------------------------|---------------------------------|
G|--9------12------9-----9---9-----|------------7------------7-----7-|
D|--9------12------9-----9---9-----|------9------------9--------9----|
A|--7------10------7-----7---7--7--|--7------7------7--7-------------|
E|---------------------------------|-------------------0---0---------|

e|---------------------------------|---------------------------------|
B|---------------------------------|---------------------------------|
G|--9-------------7-----7---7------|-----------7-------------7-----7-|
D|--9------7------7-----7---7------|----9-------------9---------9----|
A|--7------7------5-----5---5--5/6-|-7------7------7--7--------------|
E|---------5-----------------------|------------------0---0----------|

e|---------------------------------|---------------------------------|
B|---------------------------------|---------------------------------|
G|--9----12-----9-------9---9------|----------7-------------7-----7--|
D|--9----12-----9-------9---9------|----9------------9---------9-----|
A|--7----10-----7-------7---7---7--|-7--7---7-----7--7----7----7-----|
E|---------------------------------|----0---------0--0----0----------|

e|---------------------------------|---------------------------------|
B|---------------------------------|---------------------------------|
G|-----------7------------7------7-|-----------7-----------7------7--|
D|----9------------9---------9-----|----9-----------9----------9-----|
A|-7--7---7------7-7----7----7-----|-7--7----7----7-7---7------7-----|
E|----0----------0-0----0----------|----0---------0-0---0------------|

e|----------------------------|--------------------------|
B|----------------------------|--------------------------|
G|--------7----------7------7-|--------5---------5-----5-|
D|---9--------9----------9----|---7--------7--------7----|
A|-7-7--7---7-7---7------7----|-5----5---5----5----------|
E|---0------0-0---0-----------|--------------------------|

e|----------------------------|--------------------------|
B|----------------------------|--------------------------|
G|--------5--------5-------5--|--------3---------3-----3-|
D|---7--------7--------7------|---5--------5--------5----|
A|-5----5---5----5------------|-3----3---3----3----------|
E|----------------------------|--------------------------|

e|-------------------------------------|
B|-------------------------------------|
G|----------3-----------3-------3------|
D|---5------------5---------5----------|
A|-3-----3-----3-----3-----------------|
E|-------------------------------------|

e|----------------------|--------------|---------------------------|
B|----------------------|--------------|---------------------------|
G|----------------------|--------------|---------------------------|
D|--4---------5-----5---|--4-----------|--7-/-9--------4--5----4h5-|
A|--2---------3-----3---|--2-----------|--5-/-7--------------------|
E|----------------------|--------------|--0--------0---------------|

e|------------------------|-------------------------|
B|------------------------|-------------------------|
G|------------------------|-------------------------|
D|--4~~~~~~~~-4-----------|--7-/-9------4----5---7--|
A|---------------5--2--5--|--5-/-7------------------|
E|------------------------|--0-----0--0-------------|

e|--------------------------|---------------------------|
B|--------------------------|---------------------------|
G|--------------------------|---------------------------|
D|-7~~~~~~~-7---4-----------|--7-/-9--------4--5----4h5-|
A|------------------5-------|--5-/-7--------------------|
E|----------------------7---|--0--------0---------------|

e|------------------------|-------------------------|
B|------------------------|-------------------------|
G|------------------------|-------------------------|
D|--4~~~~~~~~-4-----------|--7-/-9------4----5---7--|
A|---------------5--2--5--|--5-/-7------------------|
E|------------------------|--0-----0--0-------------|

                                       Full Full Full---
e|------------------------|--------------------------------------|
B|------------------------|--------------------------------------|
G|---------4-4-------4/7--|-7h9---9~~7---9b--9b--9b---(9)---7h9--|
D|-7----------------------|--------------------------------------|
A|------------------------|--------------------------------------|
E|------------------------|--------------------------------------|

                   Full--- tr~~~~~~~ Full--- tr~~~~~~ Full--- tr~~~~~
e|---------------------------------------------------------------------|
B|---------------------------------------------------------------------|
G|-(9)~~~7----7--9--9b--(9)(7h9)-p7--9b--(9)(7h9)-p7--9b--(9)(7h9)-p7--|
D|---------9-----------------------------------------------------------|
A|---------------------------------------------------------------------|
E|---------------------------------------------------------------------|

  Full--- tr~~~~~~~Full--- tr~~~~~~~Full--- tr~~~~~~~Full---tr~~~~~~
e|---------------------------------------------------------------------|
B|---------------------------------------------------------------------|
G|-9b--(9)(7h9)-p7--9b--(9)(7h9)-p7--9b--(9)(7h9)-p7--9b--(9)(7h9)-p7--|
D|---------------------------------------------------------------------|
A|---------------------------------------------------------------------|
E|---------------------------------------------------------------------|

[Gtr.1]  
      Full   Full    Full    Full
e|---------------------------------------------------------------------|
B|---------------------------------------------------------------------|
G|------9b-----9b------9b------9b---------(9)---7------7---/---9~~~~---|
D|--------------------------------------------------9------------------|
A|---------------------------------------------------------------------|
E|---------------------------------------------------------------------|
                                                                            
[Gtr.2]                                                              
 Full--- tr~~~~~~~Full--- tr~~~~~~~Full            Full            
e|---------------------------------------------------------------------|
B|---------------------------------------------------------------------|
G|-9b--(9)(7h9)-p7--9b--(9)(7h9)-p7--9b--(9)-p-7-h9--9b--(9)p7--9---7--|
D|---------------------------------------------------------------------|
A|---------------------------------------------------------------------|
E|---------------------------------------------------------------------|

[Gtr.1]
e|--------------------------------------------------|
B|--------------------------------------------------|
G|-(9)--\-7-/-9~~~~~~~-------7-h9----------7-h9~~~~-|
D|---------------------7-h9----------7-h9-----------|
A|--------------------------------------------------|
E|--------------------------------------------------|
                                              
[Gtr.2]                                          
e|--------------------------------------------------|
B|--------------------------------------------------|
G|--7-/-9-~~~~~~~~~~~~~~~~~--7h9~~~~~--7h9---9--9~~~|
D|--------------------------------------------------|
A|--------------------------------------------------|
E|--------------------------------------------------|

e|---------------------------------------|
B|---------------------------------------|
G|---(9)~~--------7h9~~~-----7h9~~~~-----|
D|-----------7h9--------7h9---------9p7--|
A|---------------------------------------|
E|---------------------------------------|
                                                                        
e|---------------------------------------|
B|---------------------------------------|
G|---(9)~~-------7h9~~~-----7h9~~~~------|
D|----------7h9--------7h9----------7--9-|
A|---------------------------------------|
E|---------------------------------------|

e|--------------------------------------------------|
B|--------------------------------------------------|
G|--------------------------------------------------|
D|--9-p-7\-5--7--5\4--5-4h5p4---4h5p4-----4h5p4-----|
A|----------------------------7--------7---------7--|
E|--------------------------------------------------|

Full                                             
e|--------------------------------------------------|
B|--------------------------------------------------|
G|-9b--(9)p7-h9p7-----------------------------------|
D|----------------9-7--7-\5---5\4---4h5p4----4h5p--4|
A|---------------------------------7-------7--------|
E|--------------------------------------------------|

e|-------------------------------------------------|
B|-------------------------------------------------|
G|-------------------------------------------------|
D|-4--5-7-----4h5p4----4h5p4---X-------------------|
A|------------------7--------7----7--5-------5-----|
E|-------------------------------------------------|

e|-------------------------------------------------|
B|-------------------------------------------------|
G|-------------------------------------------------|
D|----4h5p4------4h5p4-------4h5--7-----4h5p4------|
A|-7-----------7-----------7-------------------7---|
E|-------------------------------------------------|

e|---------------------------|------------------------|
B|---------------------------|------------------------|
G|---------------------------|------------------------|
D|--7-/-9--------4--5----4h5-|--4~~~~~~~~-4-----------|
A|--5-/-7--------------------|---------------5--2--5--|
E|--0--------0---------------|------------------------|

e|-------------------------|--------------------------|
B|-------------------------|--------------------------|
G|-------------------------|--------------------------|
D|--7-/-9------4----5---7--|-7~~~~~~~-7---4-----------|
A|--5-/-7------------------|------------------5-------|
E|--0-----0--0-------------|----------------------7---|

e|---------------------------|------------------------|
B|---------------------------|------------------------|
G|---------------------------|------------------------|
D|--7-/-9--------4--5----4h5-|--4~~~~~~~~-4-----------|
A|--5-/-7--------------------|---------------5--2--5--|
E|--0--------0---------------|------------------------|

e|-------------------------|-----------------------------|
B|-------------------------|-----------------------------|
G|-------------------------|-----------------------------|
D|--7-/-9------4----5---7--|-7~~~~~~~-7---4--------------|
A|--5-/-7------------------|------------------5--(5)/----|
E|--0-----0--0-------------|--------------------------0--|

e|-----------------------------------|-------------------------------|
B|-----------------------------------|-------------------------------|
G|-----------7-------------7-------7-|-----------7------------7----7-|
D|-----9------------9----------9-----|----9------------9----9----9---|
A|--7-----7------7------7------------|-7--7---7-----7--7-------------|
E|--------0------0------0------------|----0---0-----0-----0----------|

e|-----------------------------------|-------------------------------|
B|**---------------------------------|-------------------------------|
G|-----------7-------------7-------7-|-----------7------------7----7-|
D|-----9------------9----------9-----|----9------------9----9----9---|
A|--7-----7------7------7------------|-7--7---7-----7--7-------------|
E|--------0------0------0------------|----0---0-----0-----0----------|
 
(**Tape Speed's up;Last Chord sounds 10 1/2 steps higher)

e|---------------|
B|---------------|
G|--9\-----------| 
D|--9\\----------|
A|--7\\\---------|
E|--0\\\\--------|

************************************

| /    Slide up
| \    Slide down
| ~    Vibrato
| h    Hammer-on
| b    Bend
| p    Pull-off
| (n)  Ghost note
| x    Dead note

************************************
Suggest correction
comments
print report bad tab
10 comments total. Showing first comments. show 1 bad comment
0 reply
ZacStrat 55 Jun 24, 2006 10:25 AM

GREAT TAB but "the end" why d'ya put that? Come on, where you been livin for the last ten yars?

0 reply
OzzyOwnz 10 Nov 29, 2006 09:55 PM

GOOD TAB IGNORE RHOADS^^

guest
You may want to rate the tab now too:
select rating
Wanna post a correction for this tab? Suggest correction