Oops, an error
Loading. Please wait.

Warning Tab

version 1
version 1

Whole song

Interactive

40,771 views 45 this week
12 commentsread comments
1 2 3 4 5
x 36
add to favorites
launch autoscroll
font size
0
reset
how to read this tab
guitar tuner
Autoscroll
slow
fast
+/-
esc
set tempo
stop
Help us to improve Ultimate-Guitar.com Take our survey!
×
Author
Warning
                                    ~Black Sabbath~

First and foremost i have to say this is one of the best Black Sabbath songs ever and
definitly expresses Tony at his best. Now this isn't the song from the first album
titled "Black Sabbath" this is the song from the Symptom Of The Universe Box Set which
i havent found anywhere else but in this set. It is kind of the same as the one from
the first album but its a little shorter and pieced together a ittle differently. I
have transcribed it for you guys cause im tired of not seeing it, and anyone who can
play "Sabbath" style blues will definitly love this one. So pick it up and play, ill
try and guide you through this as best i can, and any questions or comments send em to
Skatemate89@aol.com, 
                                          ~Enjoi~

 Now the song starts off with a harmonic with a little distortion, then 
the bass riff and drums kick in, and then a few seconds after tony comes in:
 
      (0:12)
e|--------------------|----------------13^--|--13-10---------------------|
B|-8/10---------------|-13^-^-^-----10------|--------13-10---------------|
G|---------12^--12-10-|---------------------|--------------12^p10--10----|
D|--------------------|---------------------|----------------------------|
A|--------------------|---------------------|-------------------------12-|
E|--------------------|---------------------|----------------------------|

      (0:23)
e|-----------------------------------|-----------------------------------|
B|----------------10-----------------|--------10--------------------10---|
G|-------10-------10------12^--10----|--------10-----------10-------10---|
D|----------12-12-----------------12-|-12-12------------------12-12------|
A|-10h12-----------------------------|-----------10h12-------------------|
E|-----------------------------------|-----------------------------------|

e|-------------------------------------------------------|
B|-------------------------------------------------------|
G|-------------------------------------------------------|
D|-------------------------------------------------------|
A|-3--3-3-3-3-3--4--5--5-5-5---5-5-5-5-5-5-5-------------|
E|-1--1-1-1-1-1--2--3--3-3-3---3-3-3-3-3-3-3-------------|


e|--------10------------|-------10------------------------|
B|-----10----13^-^-^-^--|-----10--13-10--------------10---|
G|--13------------------|---13---------12^p10-12-10~~10---|
D|----------------------|---------------------------------|
A|----------------------|---------------------------------|
E|----------------------|---------------------------------|

e|-----------------------------------|------------------------------|
B|----------------10-----------------|--------10--------------------|
G|-------10-------10------12^--10----|--------10-----------10-------|
D|----------12-12-----------------12-|-12-12------------------12----|
A|-10h12-----------------------------|-----------10h12--------------|
E|-----------------------------------|------------------------------|

e|-------------------------------------------|
B|-------------------------------------------|
G|-------------------------------------------|
D|-------------------------------------------|
A|-3--3-3-3-3-3-3-3-3-4-5-5-5-5-5-5-5-5-5-5--|
E|-1--1-1-1-1-1-1-1-1-2-3-3-3-3-3-3-3-3-3-3--|

        Ok, now theres a pause, then tony comes in again and plays this. 
It will take a while to get the rythm going smooth and play it just like
he plays it but once u do, well it feels good... 


 [Solo] #2  (1:36)
e|-----10--------------------------------|------10--------------------------|
B|---10----13-10-------------------------|----10--10-13-10------------------|
G|-12-----------12^p10-12p10----10h12-10-|--12------------12^p10-12--10h12--|
D|---------------------------12----------|-------------------------12-------|
A|---------------------------------------|----------------------------------|
E|---------------------------------------|----------------------------------|
 
e|-----------------------|-------13-15^-15^-------|
B|-------------13-15--13-|-13-15------------15p13-|
G|-10-----12/14-----14---|------------------------|
D|-----------------------|------------------------|
A|-----------------------|------------------------|
E|-----------------------|------------------------|
 
e|--------10--------------------------|--------------------------------|
B|---10-13--13------------------------|--------------------------------|
G|-13-----------13-12p10-12^p10-12-10-|----------10--------------------|
D|------------------------------------|----10-12-----12p10-------------|
A|------------------------------------|---------------------12-10-8-10-|
E|------------------------------------|--------------------------------|
 
e|---------------------------|--------------10------------|
B|---------------------------|------------10---13p10------|
G|-----------10-12-12^p10----|----------13----------12p10-|
D|-------/12--------------12-|---12-----------------------|
A|-8-------------------------|----------------------------|
E|---------------------------|----------------------------|
 
e|-------------------------------|------10------------13^---|
B|--------------------10---------|----10--13^-~~---10-------|
G|--------------------10---------|-12^----------------------|
D|---------10---10h12------10/20-|--------------------------|
A|-10h12-------------------------|--------------------------|
E|-------------------------------|--------------------------|
 
e|-13-10--------------------------|-------------------|
B|-------13-10--------------------|----------10-------|
G|-------------12-12^p10-12-10----|----------10-12-10-|
D|--------------------------------|----10h12----------|
A|-----------------------------12-|-------------------|
E|--------------------------------|-------------------|
 
e|------------10-------|-----------------------------------|
B|-----10-----10-------|--------10----10----10-10-10----10-|
G|-12^--------10-------|--------10-12-10-12-10-12-10-12-10-|
D|---------------------|--10h12----------------------------|
A|---------------------|-----------------------------------|
E|---------------------|-----------------------------------|
 
e|----------10-----------13--|-15^-15-------------------------------|
B|-----10---10-----13-15-----|--------15-13--------13-15-13---------|
G|-12^------10---------------|----------------13h14--------1312-10--|
D|---------------------------|--------------------------------------|
A|---------------------------|--------------------------------------|
E|---------------------------|--------------------------------------|
 
e|--------10---------10------------------|-----------------------------|
B|-----------10-13^-----13---------------|-----------------------------|
G|-12-12^------------------12^p10-12--10-|---------10------------------|
D|----------------------------------12---|---10-12----12p10------------|
A|---------------------------------------|-------------------1210-8h10-|
E|---------------------------------------|-----------------------------|
 
e|-----------------------------------|------------10-------------|
B|-----------------------------------|----------10---13p10-------|
G|--------------------10-12-12^p10---|------12^------------12p10-|
D|---------------10/12------------12-|-12------------------------|
A|-8---------------------------------|---------------------------|
E|-----------------------------------|---------------------------|
 
e|-----------------------------/x--|--------10------/x-------13^-|
B|---------------------10/--x/-----|-----10----13^/-------10-----|
G|---------------------10/---------|-12^-------------------------|
D|---------10----10h12-------------|-----------------------------|
A|-10h12---------------------------|-----------------------------|
E|---------------------------------|-----------------------------|

                                             End Solo: #2: Back to Fig A:
e|-13-10-----------------------|--------------------------|
B|-------13-10-----------------|--------------------------|
G|------------12^p10-12--10----|--------------------------|
D|--------------------------12-|--------------------------|
A|-----------------------------|--------------------------|
E|-----------------------------|--------------------------|

 OK now back to the main groove:

e|-----------------------------------|-----------------------------------|
B|----------------10-----------------|--------10--------------------10---|
G|-------10-------10------12^--10----|--------10-----------10-------10---|
D|----------12-12-----------------12-|-12-12------------------12-12------|
A|-10h12-----------------------------|-----------10h12-------------------|
E|-----------------------------------|-----------------------------------|

e|-------------------------------------------------------|
B|-------------------------------------------------------|
G|-------------------------------------------------------|
D|-------------------------------------------------------|
A|-3--3-3-3-4-|-5--5-5-5---5-5-5-------------------------|
E|-1--1-1-1-2-|-3--3-3-3---3-3-3-and so on...------------|

And another solo and he picks up the pace a little..
  
      Solo #3  (3:28)
e|-1310-1310-13^--13--101310-------10-1310--13^-1310-1310-10---10-----------|
B|--------------------------10-13^--------------------------13---1310--10---|
G|-------------------------------------------------------------------12-----|
D|--------------------------------------------------------------------------|
A|--------------------------------------------------------------------------|
E|--------------------------------------------------------------------------|
 
e|---------------------------------101310-101310----------------|
B|-1310--10----------------10-1310---------------10-------------|
G|-----12--1210-121012-12^-------------------------1210-1012-10-|
D|--------------------------------------------------------------|
A|--------------------------------------------------------------|
E|--------------------------------------------------------------|
 
e|-----------------------------------------13^---|-1310-10-1310---10------|
B|---------------------------------------10------|-------------13^---1310-|
G|-------------------------------------10--------|------------------------|
D|-101210-12-10---------------1012---------------|------------------------|
A|--------------1210-8-10/12---------------------|------------------------|
E|-----------------------------------------------|------------------------|
 
e|-1310-10h13p10--------------------|---------------------------------------|
B|-------------13-1310---10-1310----|---------------------------------------|
G|--------------------12---------12-|-1210-1210-----------------------------|
D|----------------------------------|----------12-1210-1210-10--------------|
A|----------------------------------|-------------------------12-11-10/11-10|
E|----------------------------------|---------------------------------------|
    theres a pause...

e|-----------||-------------------------------------------|
B|-----------||-----------------------------12------------|
G|-----------||--------12-12-12-12~~~-------12------------|
D|--12---14--||--12h14----------------------14----(x 2)---|
A|--12---14--||-------------------------------------------|
E|--10---12--||-------------------------------------------|
 
e|---------------12---12-----------------15^-|-1512--12--1512--12-15121512-|
B|-------------12--12----15---15^--15-12-----|-----15--------15------------|
G|-------12-14^------------------------------|-----------------------------|
D|-12h14-------------------------------------|-----------------------------|
A|-------------------------------------------|-----------------------------|
E|-------------------------------------------|-----------------------------|
           
e|-15^-15--12--15----------------15^-1512--12-12-------1512-1512--|
B|---------12------)12--1512--12---------15---12---1512-----------|
G|---------14------(12--------------------------------------------|
D|----------------------------------------------------------------|
A|----------------------------------------------------------------|
E|----------------------------------------------------------------|
 
e|---------------12------------15^-|
B|-1512--15-15^-----1512----12-----|
G|-----14----------------14--------|
D|---------------------------------|
A|---------------------------------|
E|---------------------------------|
 
e|-1512--12-1512---12-----12--------------------------------------|
B|-----15-------15-15--15^-----1512---12-1512-1512----------------|
G|---------------------------------14---------------14^-14^-------|
D|----------------------------------------------------------(12)--|
A|----------------------------------------------------------------|
E|----------------------------------------------------------------|
 
e|----------------15^--1512----12-15--12------------------------------------|
B|-1512-1512-1512-----------15-----------15^--15-12-15-12-12----------------|
G|----------------------------------------------------------14--1412--12----|
D|------------------------------------------------------------------14--14--|
A|--------------------------------------------------------------------------|
E|--------------------------------------------------------------------------|
 
e|-------------------------------------------------------------|
B|-------------------------------------------------------------|
G|----------------------------12^------------------------------|
D|-1412----12-14------12---14-----1214-12----------------------|
A|------14-------1214-----------------------1412--10--12/14----|
E|-------------------------------------------------------------|

     slower...                                  and slower......
e|---------------------------------------------------------------------------|
B|---------------------------------------------------------------------------|
G|-------12----------------------------------12------------------------------|
D|-12-14----1214-12-----12----------------12----1214-12----12----------------|
A|-----------------1214----1412-10-12h14--------------1214---1412-10---------|
E|---------------------------------------------------------------------10/12-|
 
Now another pause and he picks it up in this groove:

      (4:39)
e|-------------------------------------------------------|
B|-------------------------------------------------------|
G|-------12-------12-------12--14^-14-12----------(x 4)--|
D|-12h14----12h14----12h14-------------------------------|
A|-------------------------------------------------------|
E|-------------------------------------------------------|
 
e|------12------------------15^--15^^^-12-1512---|-1512-----------------12--|
B|----12---15-15^-----15-12-------------------15-|-----15-1512--------12--15|
G|-14^-------------------------------------------|-------------14-14^-------|
D|-----------------------------------------------|--------------------------|
A|-----------------------------------------------|--------------------------|
E|-----------------------------------------------|--------------------------|
 
e|------------------------------------12-|------12-----12----------|
B|---------------------------------12----|----12-----12--15^--15^--|
G|-1214121412-----------------14^--------|-14^----14^--------------|
D|------------1412----1214---------------|-------------------------|
A|-----------------14--------------------|-------------------------|
E|---------------------------------------|-------------------------|
 
e|-12----------12-------|------------------12--------|-----12---------------|
B|---15-12---12--1512---|-12-12-1512----------1512---|--------1512----------|
G|--------14^--------14-|-----------14-14^--------14-|-14^--------14-14^-12-|
D|----------------------|----------------------------|----------------------|
A|----------------------|----------------------------|----------------------|
E|----------------------|----------------------------|----------------------|
 
e|-----12-----12-----------------|----------------------|
B|---------------15-15-121412----|----------------------|
G|-14^----14^-----------------14-|-14^--14^--14^^-1214--|
D|-------------------------------|----------------------|
A|-------------------------------|----------------------|
E|-------------------------------|----------------------|
 
e|----------------------|-------------------------------|
B|----------------------|-------------------------------|
G|-12-------------12----|-------------------------------|
D|-----1412--1214----14-|-----------14------------------|
A|---------14-----------|-----12-14----14---2-----------|
E|----------------------|-------------------0-----------|

      (5:18)
e|------------------------------------------------------|
B|------------------------------------------------------|
G|------------------------------------------------------|
D|---------0h2------------------------------------------| X 3
A|---0h2-----------------------------------0h2----------|
E|-0-----3-----0-0-0-0-0-0-0-0-0-0-0-0-0-0-----3--------|
 
e|-------------------------|------------------------------|
B|-------------------------|------------------------------|
G|------------4^--2h4---4--|--/9-------------4^--2h4---4--|
D|---------2---------------|---------------2--------------|
A|---0h2-------------------|---------0h2------------------|
E|-0-----3-----------------|-------3-----3----------------|

e|-------------------------10^-10^-10^----10^^^------------------|
B|-----8-----8---10^p8------------------------------8---10^-8----|
G|-4/9---9-----9-------9------------------------9-----9----------|
D|---------------------------------------------------------------|
A|---------------------------------------------------------------|
E|---------------------------------------------------------------|

       (5:43)
e|----15^-15p12----15p12----------12--------------------|
B|-12-----------12-------12-12h15----15p12----12--------|
G|-----------------------------------------14-12--------|
D|------------------------------------------------------|
A|------------------------------------------------------|
E|------------------------------------------------------|
 
e|-----------------12-----------------------------------|
B|--------------12----15p12-----------------------12----|
G|-------12-14^-------------14-12h14p12h14p12h14--12----|
D|-12h14------------------------------------------------|
A|------------------------------------------------------|
E|------------------------------------------------------|
 
e|------------------------------------------------------|
B|---------------------------------12-------------------|
G|---------------------12----------12-------------------|
D|-(12)h14p12----12h14----14p12h12----------------------|
A|------------14----------------------------------------|
E|------------------------------------------------------|
 
e|------------------------------------------------------|
B|----------12----------------------------12-12---------|
G|----------12----------------------------12-12---------|
D|-14p12-------14p12----------12-14p12h14---------------|
A|-------14----------14-12h14---------------------------|
E|------------------------------------------------------|

                                 full full 1.5
e|------------------------------------------------------|
B|----------12-12--------12-15--------------------------|
G|----------12-12----14^-------14^--14^--14^------------|
D|-14p12h14-------14------------------------------------|
A|------------------------------------------------------|
E|------------------------------------------------------|
 
e|------------------------------------------------------|
B|--------------------------------------12--------------|
G|-12-14-12h14-12~----------------------12--------------|
D|------------------------------------------------------|
A|------------------------------------------------------|
E|------------------------------------------------------|
   ?(6:09)?
                 Wow. Now Tony really picks it up in 
             this big solo with nothing behind it. Its
             basically impossible to transcribe,  ....
             sorry.But then there a pause and he picks 
             it up with some distortion and again, 
             nothing behind him for thisbluesy one:

      (7:04)
e|-----------------------------------------------------|
B|-----------------------------------------------------|
G|----x----2-0------x------2-0------x------2-0---------|
D|----x----2-0------x------2-0------x------2-0---------| X 2
A|----x--x-----x----x-x--x-----x----x-x--x-----x-------|
E|-3^-0--0-----0-3^---0--0-----0-3^---0--0-----0-3^/---|

e|-------3-5p3-----------------------------------------|
B|----3h5-----5-5p3------------------------------------|
G|--4---------------4-4s2--0-2/4-4-4p2-----------------| 
D|-------------------------------------2-2p0-----------|
A|------------------------------------------2-2p0------|
E|------------------------------------------------3----|

e|---------------------------------------|
B|---------------------------------------|
G|----x----2-0------x------2-0------x----|
D|----x----2-0------x------2-0------x----|
A|----x--x-----x----x-x--x-----x----x----|
E|-3^-0--0-----0-3^---0--0-----0-3^------|

e|-------3-5p3-----------------------------------------|
B|----3h5-----5-5p3------------------------------------|
G|--4---------------4-4s2--0-2/4-4-4p2-----------------|
D|-------------------------------------2-2p0-----------|
A|------------------------------------------2-2p0------|
E|------------------------------------------------3----|

e|---------------------------------------|
B|---------------------------------------|
G|----x----2-0------x------2-0------x----|
D|----x----2-0------x------2-0------x----|
A|----x--x-----x----x-x--x-----x----x----|
E|-3^-0--0-----0-3^---0--0-----0-3^------|
 
e|---------------------------------------------------|
B|---------------------------------------------------|
G|-0-------------0------------0----------------------|
D|---2p0---2p0------2p0---0h2---2p0---0h2-0----------|
A|-------2-----2--------2-----------2-------2p0------|
E|----------------------------------------------3^---|

e|------------------------------------------------------|
B|------------------------------------------------------|
G|----x----2-0------x------2-0------x------2-0----------|
D|----x----2-0------x------2-0------x------2-0----------|
A|----x--x-----x----x-x--x-----x----x-x--x-----x--------|
E|-3^-0--0-----0-3^---0--0-----0-3^---0--0-----0-3^/----|
 
e|------12--------------------12-15^-15-121512------------------|
B|----12--15^--15^-15-12----12-----------------15-15p12---------|
G|-14^-------------------14^----------------------------14-12---|
D|--------------------------------------------------------------|
A|--------------------------------------------------------------|
E|--------------------------------------------------------------|

e|---------------------------------------|
B|---------------------------------------|
G|----x----2-0------x------2-0------x----|
D|----x----2-0------x------2-0------x----|
A|----x--x-----x----x-x--x-----x----x----|
E|-3^-0--0-----0-3^---0--0-----0-3^------|
 
e|------12----------------------------------------------------------|
B|----12---15p12----------------------------------------------------|
G|-14^-----------14-12~------------12----12-------------------------|
D|------------------------14p12----12h14----14p12-------------------|
A|------------------------------14----------------14-12--2----0-----|
E|----------------------------------------------------------3^------|

e|------------------------------------------------------|
B|------------------------------------------------------|
G|----x----2-0------x------2-0------x------2-0----------|
D|----x----2-0------x------2-0------x------2-0----------|
A|----x--x-----x----x-x--x-----x----x-x--x-----x--------|
E|-3^-0--0-----0-3^---0--0-----0-3^---0--0-----0-3^/----|

e|------------------------------------------------------|
B|------------------------------------------------------|
G|-0-------------0------------0-------------------------|
D|---2p0---2p0------2p0---0h2---2p0---0h2-0-------------|
A|-------2-----2--------2-----------2-------2p0---------|
E|----------------------------------------------3^------|

e|------------------------------------------------------|
B|------------------------------------------------------|
G|----x----2-0------x------2-0------x------2-0----------|
D|----x----2-0------x------2-0------x------2-0----------|
A|----x--x-----x----x-x--x-----x----x-x--x-----x--------|
E|-3^-0--0-----0-3^---0--0-----0-3^---0--0-----0-3~~----|

Now Tony switches it a little and fingerpicks this next piece:

   Fingerpick:
e|--0--0--0--0--0--0--0---0---0--0---0---0--0--0---0---0---0---0---0--|
B|---0--0--0--0--0--0--0---0---0--0---0---0--0--0---0---0---0---0---0-|
G|--------------------------------------------------------------------|
D|-2--4--5--7--5--7--9--12--14--9--12--14--7--9--12--14--14--14--14---|
A|--------------------------------------------------------------------|
E|--------------------------------------------------------------------|

                               slower....        ..slower....
e|--0--0--0--0--0--0--0--0--0--0--0--0--0--0--0--0--0---0---0----0----|
B|---0--0--0--0--0--0--0--0--0--0--0--0--0--0--0--0--0---0---0----0---|
G|--------------------------------------------------------------------|
D|-7--9--9--9--7--9--4--2--4--2--4--2--4--2--4--7--9--12--14---14-----|
A|--------------------------------------------------------------------|
E|--------------------------------------------------------------------|

Then he goes after a pause again, back with the distortion:

e|-------|--------------------------------------|
B|-------|--------------------------------------|
G|-------|--------------------------------------|
D|-------|--------------------------------------|
A|-2~~---|---0-2-0h2p0-0-2-0h2p0-0-2-0----------|
E|-0-----|-----------------------------3-0-0----|
 
e|-------------------------------|
B|-------------------------------|
G|-------------------------------|
D|-----5-7-7^-5h7p5-5h7-5--------|
A|-5h7--------------------7------|
E|--------------------------7----|

e|-----------------------------------|
B|-----------------------------------|
G|-----------------------------------|
D|-----------------------------------|
A|---0-2-0h2p0-0-2-0h2p0-0-2-0-------|
E|-----------------------------3-0---|

e|-------------------------------|
B|-------------------------------|
G|-------------------------------|
D|-----5-7-7^-5h7p5-5h7-5--------|
A|-5h7--------------------7------|
E|--------------------------7----|

e|------------------------------------|
B|------------------------------------|
G|------------------------------------|
D|------------------------------------|
A|---0-2-0h2p0-0-2-0h2p0-0-2-0--------|
E|-----------------------------3-0----|

e|------12-----------12--------------------------------------|
B|----12--12-15^-15^----15-12h15p12----------------12--------|
G|-14^------------------------------12-12h14p12----12--------|
D|----------------------------------------------14-----------|
A|-----------------------------------------------------------|
E|----------------------------------------------------(14)---|
 
e|---------------------------------------------------------------|
B|---------------------------------------------------------------|
G|---------------------------------------------------------------|
D|---------------------------------------------------------------|
A|0-2-0h2p0-0-2-0h2p0-0-2-0h2p0-0-2-0h2p0-0-2-0h2p0-0-2-0--------|
E|--------------------------------------------------------3^~~~--|
                                       When u hit the 3, let it ring for 
                                        a whopping 23 seconds with some 
                                        echo and vibrato's. then:

e|-----||---------------------------------------------|
B|-----||---------------------------------------------|
G|-----||-9-9-7-9---9-9-7-9--9-9-7-9--9-9-7-9---------|
D|(9)--||-9-9-7-9---9-9-7-9--9-9-7-9--9-9-7-9---------|
A|-7---||-7-7-5-7---7-7-5-7--7-7-5-7--7-7-5-7---------|
E|-0---||---------------------------------------------|
 
e|----------------------------------------------------|
B|----------------------------------------------------|
G|----------------------------------------------------|
D|----------------------------------------------------|
A|-12-12-12-------10-10-10-----12-12-12----10-10-10---|
E|-10-10-10--------8--8--8-----10-10-10-----8--8--8---|

       Back to the groove:
e|----------------------------------------------------|
B|----------------------------------------------------|
G|--------------109-----------------------------------|
D|-10/12-------------109-9-9h10p9-9-9/12-12-----------|
A|----------------------------------------------------|
E|----------------------------------------------------|
 
e|---------------------------------|---------------------------|
B|--------------10---------------- |-----10--------------------|
G|-------10-----10------12^--10--- |-----10-----------10-------|
D|----------12------------------12-|-12-------------------12---|
A|-10h12---------------------------|-----------10h12-----------|
E|---------------------------------|---------------------------|

e|---------------------------------------------------|
B|---------------------------------------------------|
G|---------------------------------------------------|
D|---------------------------------------------------|
A|-3--3-3-3-4-|-5--5-5-5---5-5-5---------------------|
E|-1--1-1-1-2-|-3--3-3-3---3-3-3-and so on...--------|

   Then he does this ending lick:

e|-10----13^-13-10h13p10------------------------------------------------|
B|----13-----------------13---------------------------------------------|
G|--------------------------10p9--10p9-10p9-----------------------------|
D|------------------------------------------12p10-12p10-----------------|
A|------------------------------------------------------12-10p9------12-|
E|-------------------------------------------------------------------10-|

************************************

| /    Slide up
| h    Hammer-on
| ~    Vibrato
| p    Pull-off
| (n)  Ghost note
| x    Dead note 

************************************

        Wow. That took me a few days to clean up and make perfect.
 I did as best i could on this one so i hope u enjoy it. Like i said
 before, any comments, (hopefully good )you can send it to: 
          Skatemate89@aol.com. Thanks everybody, Sabbath Rules!
                                              yo jenn... 

        + God Bless Dime +
        +                +
        +                +
                              ~Enjoi~
                           -Electricace-
Suggest correction
comments
print report bad tab
12 comments total. Showing first comments. show 1 bad comment
+4 reply
Brian Gelvin 649 Jun 29, 2005 12:00 AM

Where do you find the time to tab a 10 minute song kisck ass.

+1 reply
Mul 48 Dec 31, 2006 01:08 PM

Man, that must have been a hard piece of work

guest
You may want to rate the tab now too:
select rating
Wanna post a correction for this tab? Suggest correction