Oops, an error
Loading. Please wait.

Zero The Hero bass

version 1
version 1

Whole song

Interactive

5,371 views 12 this week
no commentswrite comment
1 2 3 4 5
x 3
add to favorites
×
Save as Personal and add changes to this tab that will be seen only by you. Learn more ›
×
You can save this tab as Personal to edit and correct it or add notes. All changes will be seen only by you. Learn more »
launch autoscroll
font size
0
reset
guitar tuner
backing track
0:00
0:00
edit
Autoscroll
slow
fast
+/-
esc
set tempo
stop
Author
Song: Zero the Hero
Band: Black Sabbath
Album: Born Again
Tabbed by: cianormo

When I first heard this song, Tony’s mighty and terrifying guitar work scared me 
A brilliant riff and as usual, no bass tabs. I gave it a go. I didn’t write out the song 
because a lot of the riffs are repeated over and over again

“The Dark” plays, then the main riff comes in around 00:33

Main Riff
Gb|------------------------------------------------|
Db|------------------------------------------------|
Ab|-----------------------------0------------------|
Eb|--2--2--0--1--2--2--0--1--2-----2--0--2--2--1--0|

Riff B
Gb|------------------------------------------------------------|
Db|-----4--------------4--------------4--------------4---------|
Ab|--------3--2--2--------3--2--2--------3--2--2--------3--2--2|
Eb|--2--------------2--------------2--------------2------------|

Riff C
Gb|------------------------------------------------------------------|
Db|-----6--------------6--------------6--------------6---------------|
Ab|--------5--4--4--------5--4--4--------5--4--4--------5--4--4------|
Eb|--4--------------4--------------4--------------4--------------1--0|

Chorus (What ya gonna be)
Gb|------------------------------------------------|
Db|------------------------------------------------|
Ab|-----------------------------2------------------|
Eb|--4--4--2--3--4--4--2--3--4-----4--2--4--4--2--3|

Gb|------------------------------------------------|
Db|------------------------------------------------|
Ab|----------4---------2---------------------------|
Eb|-----------------------------2----------4-------|

And that is it. I mightn’t have tabbed the rhythm correctly but listen to the song and 
get it no problem.

Please Rate.

Enjoy!!!

            
            
Suggest correction
Creating personal tab
Creating personal tab
You can edit any tab online and save it as your Personal.

You can edit, replace or remove any tab part or add personal notes – all changes will be seen only by you.

Personal tabs can be accessed anytime from any device, even offline.
Learn more »
Give kudos to tab author, rate the tab!
1 2 3 4 5
comments
print report bad tab
guest
You may want to rate the tab now too:
select rating
Wanna post a correction for this tab? Suggest correction