Oops, an error
Loading. Please wait.

Big City Lights intro tab

version 1
version 1

Intro

Whole song

4,244 views 1 this week
5 commentsread comments
1 2 3 4 5
x 3
add to favorites
×
Save as Personal and add changes to this tab that will be seen only by you. Learn more ›
×
You can save this tab as Personal to edit and correct it or add notes. All changes will be seen only by you. Learn more »
launch autoscroll
font size
0
reset
how to read this tab
guitar tuner
edit
Autoscroll
slow
fast
+/-
esc
set tempo
stop
Author
Difficulty
Hey guys, this is an awesome song and its so much fun to play, so i figured I would 
to the BSC fans. I only have the intro for now, but i might get the whole song in the 
Thanks for checking my tab out
-Christian


Tuning: Drop D half step down

Eb]------------------------------|
Bb]------------------------------|
Gb]------------------------------|  repeat 3 times
Db]---7--7--4--0--11-----6-----6-|
Ab]------------------------------|
Db]-4--4--0--0--7----7/2---2-2---|

Eb]------------------------|
Bb]------------------------|
Gb]------------------------|
Db]---7--7--4--0--11-----6-| end with this on the 4th time
Ab]------------------------|
Db]-4--4--0--0--7----7/2---|


Eb]-----------------------------------------------------------|
Bb]-----------------------------------------------------------|
Gb]-----------------------------------------------------------|
Db]-----7---6-----------7---6----------7---6------------------|
Ab]-------------7h9-------------9--------------9---7---5-2b-0-|
Eb]-0-0---0---0-----0-0---0---0----0-0---0---0---0---0--------|

Thats part folks, ill do my best to get the rest
Have fun

            
            
Suggest correction
Creating personal tab
Creating personal tab
You can edit any tab online and save it as your Personal.

You can edit, replace or remove any tab part or add personal notes – all changes will be seen only by you.

Personal tabs can be accessed anytime from any device, even offline.
Learn more »
Give kudos to tab author, rate the tab!
1 2 3 4 5
comments
print report bad tab
5 comments total. Showing first comments.
0 reply
mfkr 201 Nov 17, 2007 10:28 AM

Awsome tab mate. Try and get the rest.

0 reply
Kreuger 802 Aug 08, 2008 11:33 AM

The chorus is

Eb]------------------------------|
Bb]------------------------------|
Gb]------------------------------|
Db]-4-4-4--0-0-0--7-7-7--2-2-2---|
Ab]-4-4-4--0-0-0--7-7-7--2-2-2---|
Db]-4-4-4--0-0-0--7-7-7--2-2-2---|

0 reply
Kreuger 802 Aug 08, 2008 11:35 AM

Oh and I think one guitar plays those notes with single strums while the other picks, during the verse.

guest
You may want to rate the tab now too:
select rating
Wanna post a correction for this tab? Suggest correction