Oops, an error
Loading. Please wait.

Blind Man Tab

version 2
version 2

Whole song

Interactive

17,907 views 48 this week
no commentswrite comment
1 2 3 4 5
excellent!
x 9
add to favorites
launch autoscroll
font size
0
reset
how to read this tab
guitar tuner
Tab Pro tools
  • play this tab
  • loop segment
  • change instrument
  • show fretboard
  • metronome
Autoscroll
slow
fast
+/-
esc
set tempo
stop
Contributor
RATE AND COMMENT

This was like my first ever tab.
I know it sucks haha.
I might update the whole thing soon.

Drop C# tuning



Intro
|--------------------------------------------------------------|
|--------------------------------------------------------------|
|--------------------------------------------------3--------5--|
|--------------/------3h5-----/--------------/-----3--3--5--5--|
|--3h5-----3h5-/----------3h5-/--3h5-----3h5-/-----1--3--5--3--|
|-0----3h5-----/--0-3~--------/-0----3h5-----/-0-3----3--5-----| x2


Verse
|------------------------------------------------------------------|
|------------------------------------------------------------------|
|----------------------------------5-5-----------------------------|
|-------------------------------/--5-5--5-5-----------3------------|
|-5-----3h5-----3h5-----3h5-----/--3-3--5-5-------3-5---5-5p3------|
|---030-----030-----030-----030-/-------5-5---0-5-------------5p3--| 1


|--------------------------------------------------------------|
|--------------------------------------------------------------|
|---------------------------5-5--------------------------------|
|------------------------/--5-5--5-5-----3---------------------|
|-5---3h5---3h5---3h5----/--3-3--5-5--------5-3--5p3---5p3-----|
|--030---030---030---030-/-------5-5---0------------5p3---5p3--| 2

PALM MUTE 0 3 0 bit                                           x2


Pre Chorus
|------------------------------------------------------------|
|------------------------------------------------------------|
|--7--7-7--7-5--5-5~-----------------------------------------|
|--7--7-7--7-5--5-5~-33333333--22222222----------------------|
|--5--5-4--4-3--3-5~-33333333--22222222----------------------|
|--------------------33333333--22222222----------------------|
                        PM        PM


Chorus
|---------------------------------------------------------|
|---------------------------------------------------------|
|-------------------55-5555-------------------------------|
|-00-0000--33-3333--55-5555--55--------3h5----------------|
|-00-0000--33-3333--33-3333--55-3--3h5--------------------|
|-00-0000--33-3333-----------55---------------------------| x2

|-----------------------------------|
|-----------------------------------|
|-----------------------------------|
|-333333--555555-----\--------------|
|-333333--555555-----\-slide--------|
|-333333--555555-----\--------------|

repeat Intro x1

repeat verse x1

repeat Pre Chorus x1

repeat Chorus x1


*drum soloey part*


Fill / Bridge
|---------------------------------------------------------|  I dont really know this bit
|---------------------------------------------------------|  properly (yet)
|---------------------------------------------------------|
|------3---------3----------------------------------------|
|-3h5-5-5-5-3h5-5-5-5---5p3h5p3-----5p3h5p3------5p3------|
|-------------------------------5p3---------5p3------hp3--|


*SOLO*!

repeat Pre Chorus x1

repeat Chorus x1

Outro - kinda like Intro
|------------------------------------------------------------------------|
|------------------------------------------------------------------------|
|---------------------------------------------------------------5-~~-\---|
|--------------/------3h5-----/--------------/----------3----3--5-~~-\---|
|--3h5-----3h5-/----------3h5-/--3h5-----3h5-/-----3-3h5--3h5------------|
|-0----3h5-----/--0-3~--------/-0----3h5-----/-0-3-----------------------|
comments
print report bad tab
I want to post or [tab]
guest
You may want to rate the tab now too:
select rating
Please do not post tabs as comments. Select "correction" instead!