Oops, an error
Loading. Please wait.

Fiesta Del Fuego Bass Tab

22 views 1 this week
no commentswrite comment
1 2 3 4 5
3 more votes to show rating
add to favorites
launch autoscroll
font size
0
reset
guitar tuner
Autoscroll
slow
fast
+/-
esc
set tempo
stop
Help us to improve Ultimate-Guitar.com Take our survey!
×
Author
Difficulty
Tuning
novice
C# G# C# F# A# D#
About this tab version
First version of this song. Was this info helpful? Yes No
------------------------------------------------------------------------------
             Fiesta Del Fuego - Black Stone Cherry
------------------------------------------------------------------------------

Tabbed by: ChrisT

From the Album: Magic Mountain (2014)

Tuning: Db Ab Db Gb

Intro (Bass only)
Gb|-----------------------------------------------------------|
Db|-----------------------------------------------------------|
Ab|-----------------------------------------------------------|
Db|---0--8--7--0--12-10-0-10--12--0--8--7--0--12-10-0-5--3----|

Gb|-----------------------------------------------------------|
Db|-----------------------------------------------------------|
Ab|-----------------------------------------------------------|
Db|---0--8--7--0--12-10-0-10--12--0--8--7--0-3/---------------|

(Guitars enter)
Gb|-----------------------------------------------------------|
Db|o----------------------------------------------------------|
Ab|o----------------------------------------------------------|
Db|---0--8--7--0--12-10-0-10--12--0--8--7--0--12-10-0-5--3----|

Gb|-----------------------------------------------------------|
Db|----------------------------------------------------------o|
Ab|----------------------------------------------------------o|
Db|---0--8--7--0--12-10-0-10--12--0--8--7--0-3/---------------|

Verse (0:23)
Gb|-----------------------------------------------------------|
Db|-----------------------------------------------------------|
Ab|-----------------------------------------------------------|
Db|-----------------------------------------------------------|

(0:30)
Gb|-----------------------------------------------------------|
Db|-----------------------------------------------------------|
Ab|-----------------------------------------------------------|
Db|---0--8--7--0--12--0--10--8--0--8--7--0--12--0--10--12-----|

Gb|-------------------------------------------------------------------|
Db|-------------------------------------------------------------------|
Ab|-------------------------------------------------------------------|
Db|---0--8--7--0--12--0--10--8--0--8--7--0--5--0--2--1--0-------------|

Chorus
Gb|----------------------------------------------------------------------|
Db|o--------------------------------3-----------------------------------o|
Ab|o--------------------------------------------------------------------o|
Db|---0-0-0-0-0-0-0-0-3-3-3-3-3-3-3---3-3-3-3-3-3-3-3-5-5-5-5-5-5-5-5----|

Gb|-----------------------------------------------------------|
Db|-----------------------------------------------------------|
Ab|-----------------------------------------------------------|
Db|---0--5--3--0----------------------------------------------|

Gb|-----------------------------------------------------------|
Db|o----------------------------------------------------------|
Ab|o----------------------------------------------------------|
Db|---0--8--7--0--12-10-0-10--12--0--8--7--0--12-10-0-5--3----|

Gb|-----------------------------------------------------------|
Db|----------------------------------------------------------o|
Ab|----------------------------------------------------------o|
Db|---0--8--7--0--12-10-0-10--12--0--8--7--0-3/---------------|

Verse (1:15)
Gb|-----------------------------------------------------------|
Db|-----------------------------------------------------------|
Ab|-----------------------------------------------------------|
Db|-----------------------------------------------------------|

(1:22)
Gb|-----------------------------------------------------------|
Db|-----------------------------------------------------------|
Ab|-----------------------------------------------------------|
Db|---0--8--7--0--12--0--10--8--0--8--7--0--12--0--10--12-----|

Gb|-------------------------------------------------------------------|
Db|-------------------------------------------------------------------|
Ab|-------------------------------------------------------------------|
Db|---0--8--7--0--12--0--10--8--0--8--7--0--5--0--2--1--0-------------|

Chorus
Gb|----------------------------------------------------------------------|
Db|o--------------------------------3-----------------------------------o|
Ab|o--------------------------------------------------------------------o|
Db|---0-0-0-0-0-0-0-0-3-3-3-3-3-3-3---3-3-3-3-3-3-3-3-5-5-5-5-5-5-5-5----|

Gb|-----------------------------------------------------------|
Db|-----------------------------------------------------------|
Ab|-----------------------------------------------------------|
Db|---0--5--3--0-----------------0--5--3--0-------------------|

Guitar Solo
Gb|-----------------------------------------------------------|
Db|-------------------------5------------------------5--------|
Ab|---0--0--3--0--3-4-5-5h7----0--0--3--0--3-4-5-5h7----------|
Db|-----------------------------------------------------------|

Gb|-------------------------------------------------------------|
Db|-------------------------5-------------5h7--5----------------|
Ab|---0--0--3--0--3-4-5-5h7----0--0--3--0---------7--5--3--0----|
Db|-------------------------------------------------------------|

Gb|--------------------------------|
Db|--------------------------------|
Ab|--------------------------------|
Db|---0--5--3--0-------------------|

Chorus                                                          Repeat x4
Gb|----------------------------------------------------------------------|
Db|o--------------------------------3-----------------------------------o|
Ab|o--------------------------------------------------------------------o|
Db|---0-0-0-0-0-0-0-0-3-3-3-3-3-3-3---3-3-3-3-3-3-3-3-5-5-5-5-5-5-5-5----|

Gb|-----------------------------------------------------------|
Db|-----------------------------------------------------------|
Ab|-----------------------------------------------------------|
Db|---0--5--3--0-----------------0--5--3--0-------------------|

Gb|-----------------------------------------------------------|
Db|-----------------------------------------------------------|
Ab|-----------------------------------------------------------|
Db|---0--8--7--0--12-10-0-10--12--0--8--7--0--12-10-0-5--3----|

Gb|-----------------------------------------------------------|
Db|-----------------------------------------------------------|
Ab|-----------------------------------------------------------|
Db|---0--8--7--0--12-10-0-10--12--0--8--7--0-3/---------------|

Gb|-----------------------------------------------------------|
Db|-----------------------------------------------------------|
Ab|-----------------------------------------------------------|
Db|---0--8--7--0--12-10-0-10--12--0--8--7--0--12-10-0-5--3----|

Gb|-----------------------------------------------------------|
Db|-----------------------------------------------------------|
Ab|-----------------------------------------------------------|
Db|---0--8--7--0--12-10-0-10--12--0--8--7--0------------------|

Gb|-----------------------------------------------------------|
Db|-----------------------------------------------------------|
Ab|-----------------------------------------------------------|
Eb|-----------------------------------------------------------|

Outro
Gb|-----------------------------------------------------------|
Db|-----------------------------------------------------5-----|
Ab|--0--0-3/15--12--10--12----0--0-3/15--12--3-4-5--5-7-------|
Db|-----------------------------------------------------------|

                                                         Repeat x4
Gb|---------------------------------------------------------------|
Db|o------------------------------5-5----------------------------o|
Ab|o----------------------------------7-5-7-5-7--3-3-5-3-5-3-----o|
Db|----5--7-5-7--7-5-7-5-7--7-5-7----------------------------7----|

Gb|------------------------------------------------------------------------|
Db|------------5-7----------5-7--------------------------------------------|
Ab|---3--5--7-------3--5--7------3-5-7-0-3/15-12-10--/12-9--8\---0---------|
Db|------------------------------------------------------------------------|

Suggest correction
Give kudos to tab author, rate the tab!
1 2 3 4 5
comments
print report bad tab
guest
You may want to rate the tab now too:
select rating
Wanna post a correction for this tab? Suggest correction