Oops, an error
Loading. Please wait.

Hell And High Water intro tab

version 1
version 1

Intro

Whole song

Interactive

13,682 views 1 this week
1 commentread comment
1 2 3 4 5
x 7
add to favorites
×
Save as Personal and add changes to this tab that will be seen only by you. Learn more ›
×
You can save this tab as Personal to edit and correct it or add notes. All changes will be seen only by you. Learn more »
launch autoscroll
font size
0
reset
how to read this tab
guitar tuner
edit
Autoscroll
slow
fast
+/-
esc
set tempo
stop
Author
This IS 100% perfect, i will add everything else when i fill like it.
-Christian

Intro-Rhythm Guitar         Just figure out the rhythm pattern

e]--------------------------------------------------3-3-3-3-----------
b]--------------------------------------------------3-3-3-3-----------
g]--------------------------------------------------0-0-0-0-----------
d]--------------------------------------------------0-0-0-0- ---------
a]-----9-9-9-9-9-9-9-9-9-9-9-9-9-9-9-9-9-9-9--------2-2-2-2---4-4-4-4-
E]-18\-7-7-7-7-0-6-6-6-6-0-5-5-5-5-0-4-4-4-4--0-2-3-3-3-3-3-0-2-2-2-2-


e]---------------------
b]---------------------
g]---------------------          
d]---4-4-4-4-----------
a]---2-2-2-2---4-4-4-4-
E]-0---------0-2-2-2-2-


Intro- Lead Guitar

e]----------------------------------------------------
b]----------------------------------------------------
g]----------------------------------------------------
d]--------------------------------7h9p7-7~------------
a]-----5-7p5---5-7/9-7-5h7p5---5~----------7h9p7\5-7b-
E]-5h7-------7---------------7------------------------



e]-------------------------------------
b]------------------------7/12-12~-\7~-
g]-9b-9(r)p7---9b(r)p7-----------------
d]-----------9---------9---------------
a]-------------------------------------
E]-------------------------------------



Thanks for looking and enjoy ^_^

            
            
Suggest correction
Creating personal tab
Creating personal tab
You can edit any tab online and save it as your Personal.

You can edit, replace or remove any tab part or add personal notes – all changes will be seen only by you.

Personal tabs can be accessed anytime from any device, even offline.
Learn more »
comments
print report bad tab
1 comment total.
0 reply
theflamingyouth 10 Jan 30, 2009 05:29 AM

I think the f#-g just before the open G is the bass part but no problem in adding that it.(5 stars)

guest
You may want to rate the tab now too:
select rating
Wanna post a correction for this tab? Suggest correction