Oops, an error
Loading. Please wait.

Hell And High Water tab

version 1
version 1

Whole song

Interactive

6,507 views 3 this week
no commentswrite comment
1 2 3 4 5
x 3
add to favorites
×
Save as Personal and add changes to this tab that will be seen only by you. Learn more ›
×
You can save this tab as Personal to edit and correct it or add notes. All changes will be seen only by you. Learn more »
launch autoscroll
font size
0
reset
how to read this tab
guitar tuner
edit
Autoscroll
slow
fast
+/-
esc
set tempo
stop
Difficulty
Black Stone Cherry
Hell and High Water

Tune down a half step.

I put the basic rhythm parts but I’ll add the soloing stuff later, but you should be 
to get it.

intro
eb ----------------------------------|
Bb ----------------------------------|
Gb ----------------------------------|
Db –9-9-8-8-7-7-6-6-5-5-4-4-9-9-4-4--|
Ab –9-9-8-8-7-7-6-6-5-5-4-4-9-9-4-4--|
Eb –7-7-6-6-5-5-4-4-3-3-2-2-7-7—2-2--|

Verse
eb -----------------3-3-2-2----------|
Bb -----------------3-3-2-2----------|
Gb -----------------0-0-3-3----------|
Db –9-9-8-8-7-7-6-6-0-0-4-4-9-9-4-4--|
Ab –9-9-8-8-7-7-6-6-2-2-4-4-9-9-4-4--|
Eb –7-7-6-6-5-5-4-4-3-3-2-2-7-7—2-2—-| 2x

Chorus
eb ---------------------------|
Bb ---------------------------|
Gb –7-7---4-4-----------------|
Db –7-7-7-4-4-7-7-5-5-5-5-7-7-|
Ab –5-5-4-2-2-7-7-5-5-5-5-7-7-|
Eb -----------5-5-3-3-3-3-5-5-|

eb ---------------------------|
Bb ---------------------------|
Gb –7-7---5-5-4-4-------------|
Db –7-7-7-5-5-4-4-5-5-5-5-7-7-|
Ab –5-5-4-3-3-2-2-5-5-5-5-7-7-|
Eb ---------------3-3-3-3-5-5-|

eb -------------------------|
Bb -------------------------|
Gb –7-7-7-7-7-7-------------|
Db –7-7-7-7-7-5-2-3-4-4-3-2-|
Ab –5-5-5-5-5-5-2-3-4-4-3-2-|  Watch Counting in this part.
Eb -------------0-2-3-3-2-0-|


eb -------------------------------|
Bb -------------------------------|
Gb –7-7---4-4-------------7-7-7-7-|
Db –7-7-7-4-4-7-7-5-5-7-7-7-7-7-7-|
Ab –5-5-4-2-2-7-7-5-5-7-7-5-5-5-5-|
Eb -----------5-5-3-3-5-5---------|

Solo
eb ----------------------------------|
Bb ----------------------------------|
Gb ----------------------------------|
Db –9-9-8-8-7-7-6-6-5-5-4-4-9-9-4-4--|
Ab –9-9-8-8-7-7-6-6-5-5-4-4-9-9-4-4--|
Eb –7-7-6-6-5-5-4-4-3-3-2-2-7-7—2-2—-| 2x

Ending
eb -------------------|
Bb -------------------|
Gb –7-7-----4-4-----7-|
Db –7-7-7-7-4-4-7---7-|
Ab –5-5-4-4-2-2-7---5-|
Eb –------------5-----|

            
            
Suggest correction
Creating personal tab
Creating personal tab
You can edit any tab online and save it as your Personal.

You can edit, replace or remove any tab part or add personal notes – all changes will be seen only by you.

Personal tabs can be accessed anytime from any device, even offline.
Learn more »
Give kudos to tab author, rate the tab!
1 2 3 4 5
comments
print report bad tab
guest
Wanna post a correction for this tab? Suggest correction