Oops, an error
Loading. Please wait.

Hell And High Water tab

version 2
version 2

Whole song

Interactive

19,682 views 6 this week
7 commentsread comments
1 2 3 4 5
x 7
add to favorites
×
Save as Personal and add changes to this tab that will be seen only by you. Learn more ›
×
You can save this tab as Personal to edit and correct it or add notes. All changes will be seen only by you. Learn more »
launch autoscroll
font size
0
reset
how to read this tab
guitar tuner
edit
Autoscroll
slow
fast
+/-
esc
set tempo
stop
Author
Difficulty
I don’t know why but no one has posted the full tab for this yet so Im gonna do it


Intro
eb ----------------------------------|
Bb ----------------------------------|
Gb ----------------------------------|
Db –9-9-8-8-7-7-6-6-5-5-4-4-9-9-4-4--| different counting but same
Ab –9-9-8-8-7-7-6-6-5-5-4-4-9-9-4-4--|  on the intro there is breaks
Eb –7-7-6-6-5-5-4-4-3-3-2-2-7-7—2-2--|  in between each set

Lead guitar: (starts with a pick slide)

eb ------------------------------------------------------------------------|
Bb -----------------------------------------------------------------12-12--|
Gb -------------------------4-2-2-------------11--9------11-9------------11|
Db –--0h2-2p0----4p2p0---2--------4p2p0-0-4-2-------12p9-------12p9--------|
Ab –2---------2--------2---------------------------------------------------|
Eb ------------------------------------------------------------------------|


Verse
eb -----------------3-3-2-2----------|
Bb -----------------3-3-2-2----------|
Gb -----------------0-0-3-3----------|
Db –9-9-8-8-7-7-6-6-0-0-4-4-9-9-4-4--|
Ab –9-9-8-8-7-7-6-6-2-2-4-4-9-9-4-4--|
Eb –7-7-6-6-5-5-4-4-3-3-2-2-7-7—2-2—-| 2x

Lead after first verse                    lead after second verse
                                              Still first time through
eb ---------------------------| eb ---------------------------|
Bb ----7h10p7---7h10p7--------| Bb -12-11---------------------|
Gb –9b--------9---------9--7--| Gb –------10-9~---------------|
Db –--------------------------| Db –------------12------------|
Ab –--------------------------| Ab –--------------------------|
Eb –—-------------------------| Eb –—-------------------------|

Chorus
eb ---------------------------|
Bb ---------------------------|
Gb –7-7---4-4-----------------| again weird rhythm but same chords play
Db –7-7-7-4-4-7-7-5-5-5-5-7-7-| along with the song to start out
Ab –5-5-4-2-2-7-7-5-5-5-5-7-7-|
Eb -----------5-5-3-3-3-3-5-5-|

eb ---------------------------|
Bb ---------------------------|
Gb –7-7---5-5-4-4-------------|
Db –7-7-7-5-5-4-4-5-5-5-5-7-7-|
Ab –5-5-4-3-3-2-2-5-5-5-5-7-7-|
Eb ---------------3-3-3-3-5-5-|
Eb ---------------3-3-3-3-5-5-|


eb -------------------------|
Bb -------------------------|
Gb –7-7-7-7-7-7-------------|
Db –7-7-7-7-7-5-2-3-4-4-3-2-|
Ab –5-5-5-5-5-5-2-3-4-4-3-2-|
Eb -------------0-2-3-3-2-0-|


eb -------------------------------|
Bb -------------------------------|
Gb –7-7---4-4-------------7-7-7-7-|
Db –7-7-7-4-4-7-7-5-5-7-7-7-7-7-7-|
Ab –5-5-4-2-2-7-7-5-5-7-7-5-5-5-5-|
Eb -----------5-5-3-3-5-5---------|

Verse 2

eb -----------------3-3-2-2----------|
Bb -----------------3-3-2-2----------|
Gb -----------------0-0-3-3----------|
Db –9-9-8-8-7-7-6-6-0-0-4-4-9-9-4-4--|
Ab –9-9-8-8-7-7-6-6-2-2-4-4-9-9-4-4--|
Eb –7-7-6-6-5-5-4-4-3-3-2-2-7-7—2-2—-| 2x

Lead fill second time through               second lead fill second
                                            Time through
eb ----------12h14p12--------12---| eb ----------10-------------------|
Bb -10/12-15-----------15p12------| Bb -------------------------------|
Gb -------------------------------| Gb –9~-7--------------------------|
Db –------------------------------| Db ------9------------------------|
Ab –------------------------------| Ab--------------------------------|
Eb –—-----------------------------| Eb--------------------------------|

Back to chorus

Solo rythm
eb ----------------------------------|
Bb ----------------------------------|
Gb ----------------------------------|
Db –9-9-8-8-7-7-6-6-5-5-4-4-9-9-4-4--|
Ab –9-9-8-8-7-7-6-6-5-5-4-4-9-9-4-4--|
Eb –7-7-6-6-5-5-4-4-3-3-2-2-7-7—2-2—-| 2x


Solo lead
eb ------------------------------------------------------|
Bb –-------12-10----10-----------------------------------|
Gb --11~11~------11----11--9-9----9-9---9-9---9-11-9-----|
Db –---------------------------12----12-----12-------12-9|
Ab –-----------------------------------------------------|
Eb –—----------------------------------------------------| 2x


Solo continued
eb -----------------------------------------13b-10-—13b-10---|
Bb -------------------------------------7----------12-----12-|
Gb -----------------------------7-7h9p7----------------------|
Db ------------7-7h9p7--7-9----------------------------------|
Ab ------7-7h9---------9----9--------------------------------|
Eb -7h10-----------------------------------------------------|


eb ---------------------------------------------------------|
Bb --12-14-15-17--15-14-12-10-12-10---10h12p10--14-12---12--|
Gb --------------------------------11-----------------14----|
Db ---------------------------------------------------------|
Ab ---------------------------------------------------------|
Eb ---------------------------------------------------------|
   *************
   Trill picking
Eb --------------------14-14-14-14-14-14-14-14-14-14-|
Bb --------------------------------------------------|
Gb --11-9-----9h11p9---------------------------------|
Db -------12-----------------------------------------|
Ab --------------------------------------------------|
Eb --------------------------------------------------|


Back to chorus


outro

eb -------------------|
Bb -------------------|
Gb –7-7-----4-4-----7-|
Db –7-7-7-7-4-4-7---7-|
Ab –5-5-4-4-2-2-7---5-|
Eb -------------5-----| I like to end this with a short pentatonic improve outro

That’s it I had some trouble with the solo but the rest is as close as I could get it if 
have any problems or improvements I would love to hear them email me at guitar_229844@hotmail.com

            
            
Suggest correction
Creating personal tab
Creating personal tab
You can edit any tab online and save it as your Personal.

You can edit, replace or remove any tab part or add personal notes – all changes will be seen only by you.

Personal tabs can be accessed anytime from any device, even offline.
Learn more »
comments
print report bad tab
7 comments total. Showing first comments.
+1 reply
romolo10 10 Sep 08, 2007 06:58 AM

nice tab !! :)

+3 reply
Pete Griffin 258 Sep 22, 2007 03:44 AM

no idea if this'll come out properly,but here's the solo for the song
e|----------------------------------------------------------|
B|-7---7---7---7--------------------------------------------|
G|-9b--9b--9b--9b-------------------------------------------|
D|----------------------------------------------------------|
A|----------------------------------------------------------|
E|----------------------------------------------------------|

e|----------------------------------------------------------|
B|-10br10-7-10-7---7----------------------------------------|
G|--------------9b--9br9-7-9-7---9---7----------------------|
D|-----------------------------9---9---9-7-9-7----7---------|
A|---------------------------------------------9----9-7\5---|
E|----------------------------------------------------------|

e|----------------------------------------------------------|
B|-----------------------------------------7-10----7-10-/12-|
G|-------------------------4-7-4-/9-7-7-9b------9b----------|
D|---------------------4-7----------------------------------|
A|-7br7-5----------5-7--------------------------------------|
E|--------7----5-7------------------------------------------|
///////////////
e|-12br12-10-------12br12-10--------------------------------|
B|-----------12-12-----------12-12-----12---14--15--17------|
G|----------------------------------------------------------|
D|----------------------------------------------------------|
A|----------------------------------------------------------|
E|----------------------------------------------------------|


e|----------------------------------------------------------|
B|-17/15-15-15-15/14-14-14-14/12-12-12-12/10-10-10-10-------|
G|----------------------------------------------------------|
D|----------------------------------------------------------|
A|----------------------------------------------------------|
E|----------------------------------------------------------|

e|----------------------------------------------------------|
B|-10h12-10-----10h12-10-------12b-12p10-12-----------------|
G|----------11----------------------------------------------|
D|----------------------------------------------------------|
A|----------------------------------------------------------|
E|----------------------------------------------------------|

e|-------------------12b-12b-12b-12b-12b-12b-12b-12b-12b-12b|
B|----------------------------------------------------------|
G|-9br9-7--7-9-7--------------------------------------------|
D|-------9--------------------------------------------------|
A|----------------------------------------------------------|
E|----------------------------------------------------------|

+1 reply
Pete Griffin 258 Sep 22, 2007 03:45 AM

the tremolo picking slashes seem to have come out in the wrong place, they should be above the 12 14 15 17 at the end of the 4th tab section.

guest
You may want to rate the tab now too:
select rating
Wanna post a correction for this tab? Suggest correction