Oops, an error
Loading. Please wait.

Hell And High Water tab

version 3
version 3

Whole song

Interactive

6,474 views 1 this week
3 commentsread comments
1 2 3 4 5
x 7
add to favorites
×
Save as Personal and add changes to this tab that will be seen only by you. Learn more ›
×
You can save this tab as Personal to edit and correct it or add notes. All changes will be seen only by you. Learn more »
launch autoscroll
font size
0
reset
how to read this tab
guitar tuner
edit
Autoscroll
slow
fast
+/-
esc
set tempo
stop
Author
Difficulty
Unregistered
intermediate
This song is tuned down a step, I did not tab out each stroke of the notes, but I feel 
sounds good when playing along with the song.  I also have not figured out Chris's lead 
through out the song, enjoy!

I know your hiding places, and I know your every move
eb|--------------------------------------------------|
Bb|--------------------------------------------------|
Gb|--------------------------------------------------|
Db|-9--9--9--9--7-7--7-7-----------------------------|
Ab|-9--9--9--9--7-7--7-7-----------------------------|
Eb|-7--7--6--6--5-5--4-4-----------------------------|

Cuz girl, I've been lonely too.     Repeat first 2 lines with verse
eb|----------------------------------------------------|
Bb|----------------------------------------------------|
Gb|-----------------4----------------------------------|
Db|---5---4---------4----4-----------------------------|
Ab|---5---4---------2----4-----------------------------|
Eb|---3---2--------------2-----------------------------|

And im gone thorugh hell and high water
eb|--------------------------------------------------|
Bb|--------------------------------------------------|
Gb|-----7--------4-----------------------------------|
Db|-----7---7----4-----------------------------------|
Ab|-----5---4----2-----------------------------------|
Eb|--------------------------------------------------|

Washed away with the tide
eb|--------------------------------------------------|
Bb|--------------------------------------------------|
Gb|--------------------------------------------------|
Db|--5----7------------------------------------------|
Ab|--5----7------------------------------------------|
Eb|--3----5------------------------------------------|

I could lose a damn war all by myself
eb|--------------------------------------------------|
Bb|--------------------------------------------------|
Gb|-----7--------4-----------------------------------|
Db|-----7---7-7--4-----------------------------------|
Ab|-----5---4-3--2-----------------------------------|
Eb|--------------------------------------------------|

If you were on the other side
eb|--------------------------------------------------|
Bb|--------------------------------------------------|
Gb|--------------------------------------------------|
Db|--5----7------------------------------------------|
Ab|--5----7------------------------------------------|
Eb|--3----5------------------------------------------|

So in the morning when the rooster crows (palm muted)
eb|----------------------------------------------------|
Bb|----------------------------------------------------|
Gb|--7-------------------------------------------------|
Db|--7---7---------------------------------------------|
Ab|--5---3---------------------------------------------|
Eb|----------------------------------------------------|

Pack your backs and get ready to go
eb|----------------------------------------------------|
Bb|----------------------------------------------------|
Gb|-----------------9----------------------------------|
Db|--5--------------9----------------------------------|
Ab|--5--------------7----------------------------------|
Eb|--3-------------------------------------------------|

If your walking through hell and high water
eb|----------------------------------------------------|
Bb|----------------------------------------------------|
Gb|-----7-------4--------------------------------------|
Db|-----7---7---4--------------------------------------|
Ab|-----5---4---2--------------------------------------|
Eb|----------------------------------------------------|

Please don’t do it alone
eb|-----------------------------------------------------|
Bb|-----------------------------------------------------|
Gb|-------------7---------------------------------------|
Db|-----5---7---7---------------------------------------|
Ab|-----5---7---5---------------------------------------|
Eb|-----3---5-------------------------------------------|

Repeat for the rest of the verses and stuff, I haven’t tabbed the solos and such, enjoy 
out to this song!

            
            
Suggest correction
Creating personal tab
Creating personal tab
You can edit any tab online and save it as your Personal.

You can edit, replace or remove any tab part or add personal notes – all changes will be seen only by you.

Personal tabs can be accessed anytime from any device, even offline.
Learn more »
comments
print report bad tab
3 comments total.
0 reply
Pete Griffin 258 Sep 22, 2007 03:50 AM

Here's the solo for this song if you're interested in learning it

e|----------------------------------------------------------|
B|-7---7---7---7--------------------------------------------|
G|-9b--9b--9b--9b-------------------------------------------|
D|----------------------------------------------------------|
A|----------------------------------------------------------|
E|----------------------------------------------------------|

e|----------------------------------------------------------|
B|-10br10-7-10-7---7----------------------------------------|
G|--------------9b--9br9-7-9-7---9---7----------------------|
D|-----------------------------9---9---9-7-9-7----7---------|
A|---------------------------------------------9----9-7\5---|
E|----------------------------------------------------------|

e|----------------------------------------------------------|
B|-----------------------------------------7-10----7-10-/12-|
G|-------------------------4-7-4-/9-7-7-9b------9b----------|
D|---------------------4-7----------------------------------|
A|-7br7-5----------5-7--------------------------------------|
E|--------7----5-7------------------------------------------|
///////////////
e|-12br12-10-------12br12-10--------------------------------|
B|-----------12-12-----------12-12-----12---14--15--17------|
G|----------------------------------------------------------|
D|----------------------------------------------------------|
A|----------------------------------------------------------|
E|----------------------------------------------------------|


e|----------------------------------------------------------|
B|-17/15-15-15-15/14-14-14-14/12-12-12-12/10-10-10-10-------|
G|----------------------------------------------------------|
D|----------------------------------------------------------|
A|----------------------------------------------------------|
E|----------------------------------------------------------|

e|----------------------------------------------------------|
B|-10h12-10-----10h12-10-------12b-12p10-12-----------------|
G|----------11----------------------------------------------|
D|----------------------------------------------------------|
A|----------------------------------------------------------|
E|----------------------------------------------------------|

e|-------------------12b-12b-12b-12b-12b-12b-12b-12b-12b-12b|
B|----------------------------------------------------------|
G|-9br9-7--7-9-7--------------------------------------------|
D|-------9--------------------------------------------------|
A|----------------------------------------------------------|
E|----------------------------------------------------------|

-1 reply
Oneill9293 61 Apr 30, 2008 11:23 AM

This is wrong. It would be correct however, if the tuning was half a step down.

0 reply
chrisrocks-u 92 Nov 06, 2010 04:53 PM

thx bro. its really able to use this tab for single-acoustic-verson!

guest
Wanna post a correction for this tab? Suggest correction