Oops, an error
Loading. Please wait.

Lonely Train bass

version 1
version 1

Whole song

Interactive

14,931 views 6 this week
2 commentsread comments
1 2 3 4 5
x 4
add to favorites
×
Save as Personal and add changes to this tab that will be seen only by you. Learn more ›
×
You can save this tab as Personal to edit and correct it or add notes. All changes will be seen only by you. Learn more »
launch autoscroll
font size
0
reset
guitar tuner
edit
Autoscroll
slow
fast
+/-
esc
set tempo
stop
This is a great & very addictive song!!

But anyway, I've just really took the guitar tab from sikk_nick & put it onto bass, so 
should be thanking sikk_nick for this tab & not me!

But on to the song now . . .

Tabbed By : _-Joey-_
e-mail: jerbal@hotmail.co.uk

Tuning: Drop C


Intro/Main Riff:
F|------------------------------------------------------------------|
C|------------------------------------------------------------------|
G|------------------------------------------------------------------|
C|-0-3---0-0-0-0-3---0-0-0-0-3---0-0-5-4-3-0-5-4-3-0-5-4-3-0-5-4-3-0|  x3

F|----------------------------------------------|
C|----------------------------------------------|
G|----------------------------------------------|
C|-3-0-0-0-5-0-0-0--3-0-5-0-3-0-5-4-3-0-5-4-3-0-|  x2


Verse:
F|---------------------------------------------------------------------|
C|---------------------------------------------------------------------|
G|--------------------------------------------------------0h3p0-0h3p0--|
C|-3-0-0-0--5-0-0-0--3-0-0-0--5-0-0-0--3-0-0-0--5-0-0-0--5-----5-------|  x4

F|---------------------------------------------------------------|
C|---------------------------------------------------------------|
G|---------------------------------------------------------------|
C|-0-3---0-0-0-3---0-0-0-3---0-0-6-5-3-0-6-5-3-0-6-5-3-0-6-5-3-0-|

F|---------------------------------------------------------|
C|---------------------------------------------------------|
G|---------------------------------------------------------|
C|-0-3---0-0-0-3---0-0-0-3---0-0-6-5-3-0-6-5-3-0-3-3---3-3-|


Chorus:
F|-------------------------------------------------------------------------|
C|-------------------------------------------------------------------------|
G|-------------------------------------------------------------------------|
C|-0-0-0-0-0-0-0-0-0 3-3-3-3-3-3-3-3-3-5-5-5-5-5-5-5-5-5-8-8-8-8-8-8-8-8-8-|


--------
 Verse
--------
 Chorus
--------


Pre-Solo:
F|-----------------------------------------------------|
C|-----------------------------------------------------|
G|-----------------------------------------------------|
C|-3-0-0-0-5-0-0-0-6-0-0-0-3-5-3-0--5-0-3-5-3-0--5-0-3-|


Solo:
F|--------------------------------------|
C|--------------------------------------|
G|--------------------------------------|
C|--0~~~-----3~~~-----5~~~-----8~~~-----|


After Solo: [not sure if bass actually plays this, but when I play the song, I play it :D]
F|------7-------5-------------------------------------|
C|----7---7---7-----------7----------5-------7-5------|
G|--5-------8---------------8--------------------8-5--|
C|----------------------------------------------------|


Pre-Chorus:
F|-----------------------------------------------|
C|-----------------------------------------------|
G|-----------------------------------------------|
C|-3-0-0-0-5-0-0-0---3-0-5-0-3-0-6-5-3-0-6-5-3-0-|


--------
 Chorus
--------


Outro:
F|-------------------------------------------------------------|
C|-------------------------------------------------------------|
G|-------------------------------------------------------------|
C|-0-0-0-0-0-0-0-0-0-0-0-0-0-0-0-3-3-3-3-3-3-3-3-3-3-3-3-3-3-3-|

F|-------------------------------------------------------------|
C|-------------------------------------------------------------|
G|-------------------------------------------------------------|
C|-5-5-5-5-5-5-5-5-5-5-5-5-5-5-5-7-7-7-7-7-7-7-7-7-7-7-7-7-7-7-|

F|----------------------------------------------------|
C|----------------------------------------------------|
G|----------------------------------------------------|
C|-3-0-0-0-5-0-0-0-6-0-0-0-3-5-3-0--0-0-3-5-3-0--0-0-0|


Outro Solo:
F|--------------------------------------------------------------|
C|--------------------------------------------------------------|
G|--------------------------------------------------------------|
C|-0-3---0-0-0-3---0-0-0-3--0-0-6-5-3-0-6-5-3-0-6-5-3-0-6-5-3-0-|


Last Line Of Song:
F|----------------------------------------------------|
C|----------------------------------------------------|
G|----------------------------------------------------|
C|-3-0-0-0-5-0-0-0-6-0-0-0-3-5-3-0--0-0-3-5-3-0--0-0-0|


That's it dudes!!
AWESOME song, hope you like the tab, hope sikk-nick isn't too pissed about me making
from his tab & err... have fun & enjoy!!

            
            
Suggest correction
Creating personal tab
Creating personal tab
You can edit any tab online and save it as your Personal.

You can edit, replace or remove any tab part or add personal notes – all changes will be seen only by you.

Personal tabs can be accessed anytime from any device, even offline.
Learn more »
comments
print report bad tab
2 comments total.
+1 reply
sikk_nick 321 May 20, 2007 11:58 PM

I appreciate you giving me credit, thanks. nice tab

+1 reply
6BassRocker66 77 Sep 22, 2009 08:45 AM

this is awesome thanks, and thanks to sikk nick :P

guest
You may want to rate the tab now too:
select rating
Wanna post a correction for this tab? Suggest correction